Oops, an error
Loading. Please wait.

Ich Bin Die Sehnsucht In Dir tab

version 4
version 4

Whole song

Interactive

3,693 views 1 this week
1 commentread comment
1 2 3 4 5
3 more votes to show rating
add to favorites
×
Save as Personal and add changes to this tab that will be seen only by you. Learn more ›
×
You can save this tab as Personal to edit and correct it or add notes. All changes will be seen only by you. Learn more »
launch autoscroll
font size
0
reset
how to read this tab
guitar tuner
edit
Autoscroll
slow
fast
+/-
esc
set tempo
stop
Author
so mädels. is ja nicht zum aushalten was ihr euch da rausgehört habt...
ich geb ma meinen senf dazu.

Song: Ich Bin Die Sehnsucht In Dir
Band: Die Toten Hosen


Tuning: 1 step down (DGCFAD)

Riff1a)
D-----------------------------------------------|
A-----------------------------------------------|
F-------4-----2-------2-------------------------|
C-----2-----2-------2----------6----------------|
G---2-----3-----3-4-----4-3-/7---7--------------|
D-0---------------------------------------------|

Riff1b)
D-------------------------------0---------------|
A-----------------------------4-----------------|
F-------4-----2-------2-----4-------------------|
C-----2-----2-------2-----5---------------------|
G---2-----3-----3-4-----6-----------------------|
D-0---------------------------------------------|

Riff2)
D-----------------------------------------------|
A------8---------------7-----5------------------|
F------------7----------------------------------|
C----9-----9-----9---7-----7--------------------|
G-/7-----6-----6---5-----4----------------------|
D-----------------------------------------------|

Riff3)
D-----------------------------------------------|
A----------------------------5------------------|
F-----9----9/12------5-5-----X------------------|
C---9-9----9/12----5-5-5---7-7------------------|
G-7------7--/10--3-----3---7-7------------------|
D------------------------3/5-5------------------|

I think you should be able to play these riffs in the correct order.

Chorus part 1: (Played over F - C* - G* Chords)
a)
D-----------------------------------------------|
A---------b--r----------------------------------|
F---7-9-9/(10)\9-7------------------------------|
C------------------10---------------------------|
G-----------------------------------------------|
D-----------------------------------------------|

b)
D-----------------------------------------------|
A---------b--r----------------------------------|
F---7-9-9/(10)\9--------------------------------|
C----------------7------------------------------|
G-----------------------------------------------|
D-----------------------------------------------|

c)
D-----------------------------------------------|
A---------b--r----------------------------------|
F---7-9-9/(10)\9--------------------------------|
C----------------7--7-7/10----------------------|
G-----------------------------------------------|
D-----------------------------------------------|

Bridge: 1xa) 1xb) 1xa) 1xc)

Chorus part 2(with distortion):
D-----------------------------------------------|
A---------------------------------13-13-13-13---|
F--9-9-9-9--x-9-9-9-9-9-9--x-10-10--12-12-12-12-|
C--9-9-9-9--x-9-9-9-9-9-9--x-10-10--10-10-10-10-|
G--7-7-7-7--x-7-7-7-7-7-7--x-10-10--------------|
D-----------------------------------------------|

D-----------------------------------------------|
A-x-13-13-13-13-13-13--x-10-10------------------|
F-x-12-12-12-12-12-12--x-9--9-------------------|
C-x-10-10-10-10-10-10--x-7--7-------------------|
G-----------------------------------------------|
D-----------------------------------------------|

That's the song. There is one part in the middle of the song, i didn't tab.
It sounds like Riff2 bout much higher... and thean there comes the second Guitar an 
a melody over it.
I might tab it in a few days... perhaps... maybe i'll tab it then

For any comments, fanpost, whatever mail to DerSuperheldDerMetalwelt@yahoo.de


Tablature Legend
----------------
 h   - hammer-on
 p   - pull-off
 b   - bend
 pb  - pre-bend
 r   - bend release (if no number after the r, then release immediately)
 /\  - slide into or out of (from/to "nowhere")
 s   - legato slide
 S   - shift slide
  - natural harmonic
[n]  - artificial harmonic
n(n) - tapped harmonic
 ~   - vibrato
 tr  - trill
 T   - tap
 TP  - trem. picking
 PM  - palm muting
\n/  - tremolo bar dip; n = amount to dip
 \n  - tremolo bar down
 n/  - tremolo bar up
/n\  - tremolo bar inverted dip
 =   - hold bend; also acts as connecting device for hammers/pulls
 <>  - volume swell (louder/softer)
 x   - on rhythm slash represents muted slash
 o   - on rhythm slash represents single note slash

            
            
Suggest correction
Creating personal tab
Creating personal tab
You can edit any tab online and save it as your Personal.

You can edit, replace or remove any tab part or add personal notes – all changes will be seen only by you.

Personal tabs can be accessed anytime from any device, even offline.
Learn more »
Give kudos to tab author, rate the tab!
1 2 3 4 5
comments
print report bad tab
1 comment total.
0 reply
fuku 10 Oct 14, 2004 08:00 PM

I think the correct version is somewhre between the 1st and the 3rd
But it´s much easy to play it in drop c (I know that the guitarists of hte toten hosen play it in standart or one tone lower)

guest
You may want to rate the tab now too:
select rating
Wanna post a correction for this tab? Suggest correction