Oops, an error
Loading. Please wait.

Steh Auf Wenn Du Am Boden Bist tab

version 1
version 1

Whole song

Interactive

52,606 views 27 this week
2 commentsread comments
1 2 3 4 5
x 8
add to favorites
×
Save as Personal and add changes to this tab that will be seen only by you. Learn more ›
×
You can save this tab as Personal to edit and correct it or add notes. All changes will be seen only by you. Learn more »
launch autoscroll
font size
0
reset
how to read this tab
guitar tuner
edit
Autoscroll
slow
fast
+/-
esc
set tempo
stop
source http://www.hosentabs.ch.vu

Steh auf, wenn du am Boden bist


[Intro]

    E   Esus E   H
E |----------------:|
H |----------------:|
G |--1----2-1------:|
D |--2----2-2----4-:|
A |--2----2-2----2-:|
E |----------------:|


[1.Strophe]

E |-----------------------|
H |-----------------------|
G |--1----2----1----2-----|
D |--2----2----2----2-----|
A |--2----0----2----0--4--|
E |--------------------2--|

E |-------------------------|
H |-------------------------|
G |--4---------2----4----1--|
D |--4---------2----4----2--|
A |--2----4----0----2----2--|
E |-------2-----------------|

      E             A
Wenn du mit dir am Ende bist
     E                A      F#m
Und du einfach nicht weiter willst
     H                  F#m             A
Weil du dich nur noch fragst warum und wozu
              H                  E
Und was dein Leben noch bringen soll

Halt durch, auch wenn du allein bist
Halt durch, schmeiss jetzt nicht alles hin
Halt durch, und irgendwann wirst du versteh'n
Dass es jedem einmal so geht


[Bridge] (Powerchords)
              F#                H
Und wenn ein Sturm dich in die Knie zwingt
             F#                      H
Halt dein Gesicht einfach gegen den Wind
          F#                H
Egal wie dunkel die Wolken über dir sind
             F#           A    H
Sie werden irgendwann vorüberzieh'n


[Refrain]
      E               A      H
Steh auf, wenn du am Boden bist
Steh auf, auch wenn du unten liegst
      C#                  A         H      E
Steh auf, es wird schon irgendwie weiter gehen


[Zwischenspiel]

E |----------------:|
H |----------------:|
G |--1----2-1------:|
D |--------------4-:|
A |----------------:|
E |----------------:|


[2.Strophe] (Powerchords)

Es ist schwer, seinen Weg nicht zu verlier'n
Und bei den Regeln und Gesetzen hier
Ohne Verrat ein Leben zu führ'n
Dass man selber noch respektiert


[Bridge]

Auch wenn die Zeichen gerade alle gegen dich stehn
Und niemand auf dich wetten will
Du brauchst hier keinem irgend einen Beweis zu bringen
Es sei denn es ist für dich selbst


[Refrain]

Steh auf, wenn du am Boden bist
Steh auf, auch wenn du unten liegst
Steh auf, es wird schon irgendwie weiter gehen


[Solo]

E |-------------------------------|
H |-------------------------------|
G |-----------1-2--1-----1--------|
D |--2----2-4---------4-----1-----|
A |-------------------------------|
E |-------------------------------|

E |-------------------------------|
H |-------------------------------|
G |-------------------------------|
D |------1-2--------1--2----2-4---|
A |--4-4---------4----------------|
E |-------------------------------|

E |-------------------------------|
H |-------------------------------|
G |--1-2--1-----1-----------------|
D |----------4-----1-------1-2--4-|
A |---------------------4---------|
E |-------------------------------|


[Bridge]

Nur keine Panik so schlimm wird es nicht
Mehr als deinen Kopf reisst man dir nicht weg
Komm und seh' nach vorn

[Refrain]

Steh auf, wenn du am Boden bist
Steh auf, auch wenn du unten liegst
Steh auf, es wird weiter gehen

Steh auf, wenn du am Boden bist
Steh auf, auch wenn du unten liegst
Steh auf, es wird schon irgendwie weiter gehen


[Coda]

E |-------------------------------|
H |-------------------------------|
G |-----------1-2--1-----1--------|
D |--2----2-4---------4-----1-----|
A |-------------------------------|
E |-------------------------------|

E |----------------------|
H |----------------------|
G |----------------------|
D |-----1-2----4----2----|
A |--4-------------------|
E |----------------------|

            
            
Suggest correction
Creating personal tab
Creating personal tab
You can edit any tab online and save it as your Personal.

You can edit, replace or remove any tab part or add personal notes – all changes will be seen only by you.

Personal tabs can be accessed anytime from any device, even offline.
Learn more »
comments
print report bad tab
2 comments total.
0 reply
Deolino 10 Aug 02, 2011 10:09 AM

Der Solo Part wird so Gespielt.

E |-------------------------------|
H |-------------------------------|
G |-----------2----1-----1--------|
D |--2----2-4---------4-----1-----|
A |-------------------------------|
E |-------------------------------|

0 reply
Pieet 78 Jan 04, 2014 03:49 AM

statt C# müsste es C#m sein sonst super!

guest
Wanna post a correction for this tab? Suggest correction