Oops, an error
Loading. Please wait.

Wunder tab

4,334 views 1 this week
2 commentsread comments
1 2 3 4 5
2 more votes to show rating
add to favorites
×
Save as Personal and add changes to this tab that will be seen only by you. Learn more ›
×
You can save this tab as Personal to edit and correct it or add notes. All changes will be seen only by you. Learn more »
launch autoscroll
font size
0
reset
how to read this tab
guitar tuner
edit
Autoscroll
slow
fast
+/-
esc
set tempo
stop
Author
Difficulty
intermediate
Artist: Die Toten Hosen
Song: Wunder
Album: Zurueck zum Glueck
Tabbed by: Manuel Maier (maanuueell[at]gmail.com)

Really easy song, don't know if it's all 100% right but it sounds good to me ;)
plz comment ;)
You can play the powerchords as you like, but imho you have to use the low E5 (0-2-2).
Really cool song, have fun playing it =)

###############

Intro (4x):
    E5       D5   E5
e|---------------------|
B|------------3--------|
G|------------2--------|
D|--2---------0---2----|
A|--2-------------2----|
E|--0-------------0----|


D5      E5                              D5
Wie wahrscheinlich ist die Welt 'ne Illusion,
(D5)                           E5 
Und wie wahrscheinlich gibt es Gott?
D5  E5                               D5
Wie wahrscheinlich hatte er blos einen Sohn,
(D5)                   E5
und wie sicher ist der Tod?


             G5             Dm
Und wie hoch ist die Möglichkeit,
         A5                Em
Dass ein Mensch den andern Liebt
      G5               Dm
Warum soll's unmachbar sein,
            A5               E5
Dass es mal weltweit Frieden gibt?


(E5)                              D5
Wie denkbar ist ein Leben auf dem Mars,
(D5)                             E5 
Wie wahrscheinlich machen Drogen Spaß?
D5  E5                             D5
Wie sicher ist die deutsche Meisterschaft
(D5)                   E5
Wenn Fortuna erst den Aufstieg packt


    C5                   G5
Ich glaube immer noch an Wunder
               D5                       F5            C5
Ja ich weiß es kommt der Tag an dem sie jeder von uns sieht
   (C5)                  G5
Ich glaube immer noch an Wunder
          A5                    C5             E5
Und meine Hoffnung darauf, die kann mir keiner stehl'n


Solo (/=Slide in)

        G5               D5        A5                 G5
e|---------------------------------------------------------|
B|---------------------------------------------------------|
G|------/4--/4--7-4-7-4--------------------9-----9---------|
D|--5-7------------------7~~--7-9-/10-/10----10----10-9~~--|
A|---------------------------------------------------------|
E|---------------------------------------------------------|

       (G5)              D5       A5           E5
e|-------------------------------------------------|
B|-------------------------------------------------|
G|------/4--/4--7-4-7-4----------------------------|
D|--5-7------------------7~~--7-5-7-7-7-5-7-5------|
A|---------------------------------------------7---|
E|-------------------------------------------------|

  --->>> Palm Mute Chords now!!
         E5                  D5
Wenn das Gute das Böse mal besiegt
(D5)       Dsus4               D       E5
Bleibt die Zeit vielleicht für immer stehn
E5                                 D5
Wir werden alle barfuß über Wasser gehn
(D5)       Dsus4 D        E5     Stop Palm Muting <<<---
Auf unserm Weg zurück ins Licht


Refrain (Repeat 3 Times):
    C5                   G5
Ich glaube immer noch an Wunder
               D5                       F5            C5
Ja ich weiß es kommt der Tag an dem sie jeder von uns sieht
   (C5)                  G5
Ich glaube immer noch an Wunder
               A5                    C5             E5
1+2: Und meine Hoffnung darauf, die kann mir keiner stehl'n
               A5                   C5                -> Outro
  3: Und meine Hoffnung darauf      lass ich mir nicht stehl'n!

Outro (3x):
    E5       D5   E5
e|---------------------|
B|------------3--------|
G|------------2--------|
D|--2---------0---2----|
A|--2-------------2----|
E|--0-------------0----|

            
            
Suggest correction
Creating personal tab
Creating personal tab
You can edit any tab online and save it as your Personal.

You can edit, replace or remove any tab part or add personal notes – all changes will be seen only by you.

Personal tabs can be accessed anytime from any device, even offline.
Learn more »
Give kudos to tab author, rate the tab!
1 2 3 4 5
comments
print report bad tab
2 comments total.
+1 reply
Kopfgeldjaeger 10 Feb 27, 2008 09:41 AM

I would play it like this (most of the stuff on the D string with the ring finger, then you can use the forefinger for the G string. I think that's much easier!):


G5 D5 A5 G5
e|---------------------------------------------------------|
B|---------------------------------------------------------|
G|--------------7---7----------------------9-----9---------|
D|--5-7--9---9----9---9--7~~--7-9-/10-/10----10----10-9~~--|
A|---------------------------------------------------------|
E|---------------------------------------------------------|

(G5) D5 A5 E5
e|-------------------------------------------------|
B|-------------------------------------------------|
G|--------------7---7------------------------------|
D|--5-7--9---9----9---9--7~~--7-5-7-7-7-5-7-5--2---|
A|-------------------------------------------------|
E|-------------------------------------------------|

0 reply
Strahlinski 10 Sep 22, 2013 02:24 PM

alternativtext:

ich kaufe immernoch den plunder
ja ich weiß es ist umsonst aber auch so furchtbar schön.
ich kaufe immernoch den plunder
und meine sammlung die wächst, und so wird es weiter gehen

:P ;)

guest
You may want to rate the tab now too:
select rating
Wanna post a correction for this tab? Suggest correction