Oops, an error
Loading. Please wait.

Treur Niet Ode Aan Het Leven tab

version 1
version 1

Whole song

  • This is the way to play the song correct, not just... Show more

Interactive

703 views 12 this week
no commentswrite comment
1 2 3 4 5
1 last vote to show rating
add to favorites
×
Save as Personal and add changes to this tab that will be seen only by you. Learn more ›
×
You can save this tab as Personal to edit and correct it or add notes. All changes will be seen only by you. Learn more »
launch autoscroll
font size
0
reset
how to read this tab
guitar tuner
edit
Autoscroll
slow
fast
+/-
esc
set tempo
stop
About this tab version
This is the way to play the song correct, not just simple chords, but a tab wich is a little more difficult, but also more fun to play and a better sound. Was this info helpful? Yes No
TREUR NIET (ODE AAN HET LEVEN) - Diggy Dex ft. JW Roy

standard tuning, capo fret 2'
In this tab i give you all the parts of the song: INTRO, VERSE, CHORUS, INSTRUMENTAL, SOLO, OUTRO
Let's start!

chords.
Em7       -  022033
D         -  xx0232
Cadd2     -  x32030
G         -  320033
Dadd4/F#  -  2x0033


[Intro]

e|--------3------------2------------0--------------------| x4
B|-----------3------------3------------3-----------------|
G|------0-------0----2-------0----0-------0----0-----0---|
D|----------------0------------------------------2/4-----|
A|-----------------------------3-------------------------|
E|---0--------------------------------------3------------|


[Verse]

e|------3-x----------2-x----------0-x----------3-----3---| x7
B|------3-x----------3-x----------3-x----------3-----3---|
G|------0-x----------2-x----------0-x----------0-----0---|
D|--------x-----2-0----x-----0------x-----2--------------|
A|--------x--------------------3----x--------------------|
E|---0----x---------------------------------3-----2------|

8' time is a little different:
                                 let ring ~~~~~~~~~~~~~~
e|------3-x----------2-x-------3-------------------------| 
B|------3-x----------3-x-------3-------------------------|
G|------0-x----------2-x-------0-------------------------|
D|--------x-----2-0----x-----0-2-------------------------|
A|--------x--------------------3-------------------------|
E|---0----x----------------------------------------------|


[Chorus]

e|--------3------------2------------0--------------------| x5
B|-----------3------------3------------3-----------------|
G|------0-------0----2-------0----0-------0----0-----0---|
D|----------------0------------------------------2/4-----|
A|-----------------------------3-------------------------|
E|---0--------------------------------------3------------|

6' time is a little different:

                                 let ring ~~~~~~~~~~~~~~
e|--------3------------2-------3-------------------------| 
B|-----------3------------3----3-------------------------|
G|------0-------0----2-------0-0-------------------------|
D|----------------0------------2-------------------------|
A|-----------------------------3-------------------------|
E|---0---------------------------------------------------|


[Instrumental]

It's the same as the VERSE, there is a flute as well, so you gotta whistle and play at the same time ;)

e|------3-x----------2-x----------0-x----------3-----3---| x4
B|------3-x----------3-x----------3-x----------3-----3---|
G|------0-x----------2-x----------0-x----------0-----0---|
D|--------x-----2-0----x-----0------x-----2--------------|
A|--------x--------------------3----x--------------------|
E|---0----x---------------------------------3-----2------|


[Verse 2]

e|------3-x----------2-x----------0-x----------3-----3---| x7
B|------3-x----------3-x----------3-x----------3-----3---|
G|------0-x----------2-x----------0-x----------0-----0---|
D|--------x-----2-0----x-----0------x-----2--------------|
A|--------x--------------------3----x--------------------|
E|---0----x---------------------------------3-----2------|

8' time is a little different:

                                 let ring ~~~~~~~~~~~~~~
e|------3-x----------2-x-------3-------------------------| 
B|------3-x----------3-x-------3-------------------------|
G|------0-x----------2-x-------0-------------------------|
D|--------x-----2-0----x-----0-2-------------------------|
A|--------x--------------------3-------------------------|
E|---0----x----------------------------------------------|


[Chorus 2]

e|--------3------------2------------0--------------------| x7
B|-----------3------------3------------3-----------------|
G|------0-------0----2-------0----0-------0----0-----0---|
D|----------------0------------------------------2/4-----|
A|-----------------------------3-------------------------|
E|---0--------------------------------------3------------|

8' time is a little different:

                                 let ring ~~~~~~~~~~~~~~
e|--------3------------2-------3-------------------------| 
B|-----------3------------3----3-------------------------|
G|------0-------0----2-------0-0-------------------------|
D|----------------0------------2-------------------------|
A|-----------------------------3-------------------------|
E|---0---------------------------------------------------|


[Solo]
guitar 1)

e|---------2-|---3~~2-3~~~~~~----3p2-----0---------------------------| 
B|------5----|-----------------------------3~~~~~~-------------------|
G|---4-------|--------------------------------------4p2-0------------|
D|-----------|-------------------------------------------------------|
A|-----------|-------------------------------------------------------|
E|-----------|-------------------------------------------------------|

            e|---3~~2-3~~~~~~----3p2-----0---------------------------| 
            B|-----------------------------3~~~~~~~~~~~~~~~~~~-------|
            G|-------------------------------------------------------|
            D|-------------------------------------------------------|
            A|-------------------------------------------------------|
            E|-------------------------------------------------------|

            e|---7------------5------------10-10-----/12-7-----------| 
            B|---8------------7------------8--8------/10-8-----------|
            G|-------------------------------------------------------|
            D|-------------------------------------------------------|
            A|-------------------------------------------------------|
            E|-------------------------------------------------------|

            e|---3~~2-3~~~~~3p2p0-2----------------------------------| 
            B|-----------------------------/3------------------------|
            G|---------------------------2----(4)2--0----------------|
            D|----------------------------------------2-0------------|
            A|-------------------------------------------------------|
            E|-------------------------------------------------------|

guitar 2)
            e|------3-x----------2-x----------0-x----------3-----3---| x3
            B|------3-x----------3-x----------3-x----------3-----3---|
            G|------0-x----------2-x----------0-x----------0-----0---|
            D|--------x-----2-0----x-----0------x-----2--------------|
            A|--------x--------------------3----x--------------------|
            E|---0----x---------------------------------3-----2------|

                                             let ring ~~~~~~~~~~~~~~
            e|------3-x----------2-x-------3-------------------------| 
            B|------3-x----------3-x-------3-------------------------|
            G|------0-x----------2-x-------0-------------------------|
            D|--------x-----2-0----x-----0-2-------------------------|
            A|--------x--------------------3-------------------------|
            E|---0----x----------------------------------------------|

[Outro]

e|--------3------------2------------0--------------------|
B|-----------3------------3------------3-----------------|
G|------0-------0----2-------0----0-------0----0-----0---|
D|----------------0------------------------------2/4-----|
A|-----------------------------3-------------------------|
E|---0--------------------------------------3------------|

                                 let ring ~~~~~~~~~~~~~~
e|--------3------------2-------3-------------------------| 
B|-----------3------------3----3-------------------------|
G|------0-------0----2-------0-0-------------------------|
D|----------------0------------2-------------------------|
A|-----------------------------3-------------------------|
E|---0---------------------------------------------------|

Good luck with learning the song!!!



************************************

| x    Dead note
| (n)  Ghost note
| p    Pull-off
| /    Slide up
| ~    Vibrato

************************************

            
            
Suggest correction
Creating personal tab
Creating personal tab
You can edit any tab online and save it as your Personal.

You can edit, replace or remove any tab part or add personal notes – all changes will be seen only by you.

Personal tabs can be accessed anytime from any device, even offline.
Learn more »
Give kudos to tab author, rate the tab!
1 2 3 4 5
comments
print report bad tab
guest
You may want to rate the tab now too:
select rating
Wanna post a correction for this tab? Suggest correction