Oops, an error
Loading. Please wait.

Viaggio Di Un Poeta chords

by Dik Dik
556 views 12 this week
no commentswrite comment
1 2 3 4 5
x 3
add to favorites
×
Save as Personal and add changes to this tab that will be seen only by you. Learn more ›
×
You can save this tab as Personal to edit and correct it or add notes. All changes will be seen only by you. Learn more »
launch autoscroll
font size
0
reset
transpose
0
reset
simplify chords
display chords
guitar tuner
edit
Autoscroll
slow
fast
+/-
esc
set tempo
stop
Author
Difficulty
Strumming
There is no strumming pattern for this song yet. and get +5 IQ
[Intro]
F                                  F9                      C              Bb             
e|----------------------------------------------------------------------------------------|
B|----------------13b15r11-13b15r13-------------10----------15-13----13----15----13-15-13-|
G|-14-12-10-12-10-------------------14-12-10-12----12-10-12-------15----15----15----------|
D|----------------------------------------------------------------------------------------|
A|----------------------------------------------------------------------------------------|
E|----------------------------------------------------------------------------------------|
  G                                              C      Am
e|----------------------------------------------------------|
B|-13b15r13-13b15-b15-b15-b15-b15-r13-11-13----8-11~-15-20~-|
G|------------------------------------------12--------------|
D|----------------------------------------------------------|
A|----------------------------------------------------------|
E|----------------------------------------------------------|

[Verse 1]
        Am 
Lasciò il suo paese all'età di vent'anni 
       C 
Con in tasca due soldi e niente più 
   F            E           Am 
Aveva una donna che amava da anni 
    G                      Am 
Lasciò anche lei e qualcosa di più 
   Am 
Promise a se stesso di non ritornare 
      C 
Al vecchio paese della sua gioventù 
   F            E    Am 
Dove nessuno voleva sognare 
    G                      A 
I campi da arare e niente di più 

[Chorus 1]
  F 
Cominciò così a fare il vagabondo 
                  C 
Girando paesi e città 
    Gm 
Cercò la fortuna 
    Bb            F 
Nei quartieri del mondo 
  G              C 
Dimenticando la sua povertà 

[Solo]
F                                                         C Gm          Bb             F            
e|----------------------------------------------------------------------------------------|
B|----------------13b15r11-13b15r13-------------10----------15-13----13----15----13-15-13-|
G|-14-12-10-12-10-------------------14-12-10-12----12-10-12-------15----15----15----------|
D|----------------------------------------------------------------------------------------|
A|----------------------------------------------------------------------------------------|
E|----------------------------------------------------------------------------------------|
  G                                              C      Am
e|----------------------------------------------------------|
B|-13b15r13-13b15-b15-b15-b15-b15-r13-11-13----8-11~-15-20~-|
G|------------------------------------------12--------------|
D|----------------------------------------------------------|
A|----------------------------------------------------------|
E|----------------------------------------------------------|

[Verse 2]
  Am 
Un giorno in casa di un grande poeta 
     C 
trovò dei ragazzi che parlavan di pace 
    F                 E      Am 
Di colpo capì che era quella la meta 
    G                      A 
Che aveva raggiunto esser felice

[Chorus 2] 
  F
Ritornò così a fare il vagabondo 
                    C 
Girando paesi e città 
    Gm 
Voleva portare 
   Bb            F 
l'amore nel mondo 
 G                           C 
Ma pensò al paese di molti anni fa 
   F 
Senza soldi in tasca tornò ancora 
                               C 
Verso casa aveva capito cosa conta di più 
     Gm 
Davanti alla sua porta c'era 
   Bb            F 
Lei che lo aspettava 
   G                            C 
Tutto come prima e non chiedeva di più 

[Outro] (x3, Fading)
F                                                         C Gm          Bb             F            
e|----------------------------------------------------------------------------------------|
B|----------------13b15r11-13b15r13-------------10----------15-13----13----15----13-15-13-|
G|-14-12-10-12-10-------------------14-12-10-12----12-10-12-------15----15----15----------|
D|----------------------------------------------------------------------------------------|
A|----------------------------------------------------------------------------------------|
E|----------------------------------------------------------------------------------------|
  G                                           C Am
e|---------------------------------------------|
B|-13b15r13-13b15-b15-b15-b15-b15-r13-11-13----|
G|------------------------------------------12-|
D|---------------------------------------------|
A|---------------------------------------------|
E|---------------------------------------------|

***********************************

| h   - hammer-on
| p   - pull-off
| b   - bend
| pb  - pre-bend
| r   - bend release 
| /   - Slide up
| \   - Slide down
| ~   - vibrato
| PM  - palm muting
| x   - dead note
|(n)  - ghost note

***********************************

            
            
Suggest correction
Creating personal tab
Creating personal tab
You can edit any tab online and save it as your Personal.

You can edit, replace or remove any tab part or add personal notes – all changes will be seen only by you.

Personal tabs can be accessed anytime from any device, even offline.
Learn more »
Give kudos to tab author, rate the tab!
1 2 3 4 5
comments
print report bad tab
guest
You may want to rate the tab now too:
select rating
Wanna post a correction for this tab? Suggest correction