Oops, an error
Loading. Please wait.

Crystalator bass

by Dimmer
91 views 1 this week
no commentswrite comment
1 2 3 4 5
3 more votes to show rating
add to favorites
×
Save as Personal and add changes to this tab that will be seen only by you. Learn more ›
×
You can save this tab as Personal to edit and correct it or add notes. All changes will be seen only by you. Learn more »
launch autoscroll
font size
0
reset
guitar tuner
edit
Autoscroll
slow
fast
+/-
esc
set tempo
stop
Author
-------------------------------------------------------------------------------
			     CRYSTALATOR - Dimmer
-------------------------------------------------------------------------------

Tabbed By : Jackson
e-mail: jhun069 (at) auckland dot ac dot nz

Tuning: Standard

www.myspace.com/dimmerband
www.dimmer.co.nz

Really simple bass line - the guitar is definitely doing the freaking out in this song. 
most important part with the bass here is nailing it in time with the drums so it sounds 
solid.

~0:20
Intro -start hitting this note in time with the bass drum:
G|------------------------------------------------|
D|------------------------------------------------|
A|------------------------------------------------|
E|-5-5-5-5-5-5-5-5-5-5-5-5-5-5-5-5-5-5-5-5-5-5-5--|

~0:32
Keep repeating this riff:
G|-----------------------------------------------------------------|
D|-----------------------------------------------------------------|
A|-----------------------------------------------------------------|
E|-7-5-5-5-5-5-5-5-5-5-5-5-5-5-5-5-5-5-5-5-5-5-5-5-5-5-5-5-5-5-5-5-|

~1:30
Breakdown - hit this note in time with the bass drum:
G|------------------------------------------------|
D|------------------------------------------------|
A|------------------------------------------------|
E|-5-5-5-5-5-5-5-5-5-5-5-5-5-5-5-5-5-5-5-5-5-5-5--|

~1:46
Keep repeating this riff:
G|-----------------------------------------------------------------|
D|-----------------------------------------------------------------|
A|-----------------------------------------------------------------|
E|-7-5-5-5-5-5-5-5-5-5-5-5-5-5-5-5-5-5-5-5-5-5-5-5-5-5-5-5-5-5-5-5-|

~2:40
Ending - hit this note in time with the bass drum:
G|------------------------------------------------|
D|------------------------------------------------|
A|------------------------------------------------|
E|-5-5-5-5-5-5-5-5-5-5-5-5-5-5-5-5-5-5-5-5-5-5-5--|

| /  slide up
| \  slide down
| h  hammer-on
| p  pull-off
| ~  vibrato
| +  harmonic
| x  Mute note
===============================================================================

            
            
Suggest correction
Creating personal tab
Creating personal tab
You can edit any tab online and save it as your Personal.

You can edit, replace or remove any tab part or add personal notes – all changes will be seen only by you.

Personal tabs can be accessed anytime from any device, even offline.
Learn more »
Give kudos to tab author, rate the tab!
1 2 3 4 5
comments
print report bad tab
guest
You may want to rate the tab now too:
select rating
Wanna post a correction for this tab? Suggest correction