Oops, an error
Loading. Please wait.

Kings Of The Carnival Creation tab

version 1
version 1

Whole song

21,280 views 48 this week
9 commentsread comments
1 2 3 4 5
x 13
add to favorites
×
Save as Personal and add changes to this tab that will be seen only by you. Learn more ›
×
You can save this tab as Personal to edit and correct it or add notes. All changes will be seen only by you. Learn more »
launch autoscroll
font size
0
reset
how to read this tab
guitar tuner
backing track
0:00
0:00
edit
Autoscroll
slow
fast
+/-
esc
set tempo
stop
.. - palm mute          /  - slide up to
\  - slide down to      ~  - vibrato
h  - hammer on          b  - bend
p  - pull off            Suffixes for bend
                          ph - pinch harmonic
                           f - full bend    h - half bend
*  - see comment           r - release      t - tap bend
X  - percussion mute       ~ - vibrato bend
@  - slight palm mute     () - ghost note, sustained note

Tune Gtr to E (E,A,D,G,B,E)

(Gtrs enter  Riff A.1 both Gtr 1&2) (x2)
e|-----|-----------|------------------------------------------------------------|
B|-----|-----------|------------------------------------------------------------|
G|-----|-----6-7-9-|-4-----------------------------7----------------------------|
D|SYNTH|-----6-7-9-|-4-----------------------------7----------------------------|
A|-----|-555-4-5-7-|-2--2222--2222-2222--2220-2224-5--5555--5555-5555--5554-5557|
E|-----|-----4-5-7-|-2-----------------------------5----------------------------|
         ...            ....  .... ....  .... ....    ....  .... ....  .... ....

[Riff A.2] (x2)
e|---------------------------------------------------------------------|
B|---------------------------------------------------------------------|
G|-4---------------------------------7---------------------------------|(Gtrs 1
D|-4---------------------------------7---------------------------------|  & 2)
A|-2-2222-2222--2222-2222--2220-2224-5-5555-5555--5555-5555--5554-5557-|
E|-2---------------------------------5---------------------------------|
     .... ....  .... ....  .... ....   .... ....  .... ....  .... ....

[Riff B.1]
e|-----------------------------------------------|
B|-----------------------------------------------|
G|----4"----6"-------7"\-----4"----6"-------7"\--|(Gtr
D|-4"----4"----4"-4"------4"----4"----4"-4"------| 1)
A|-----------------------------------------------|
E|-----------------------------------------------|

e|-----------------------------------------------|
B|-----------------------------------------------|
G|----4"---------------------4"------------------|(Gtr
D|-4"----4"-5"-4"-4"-5"\--4"----4"-5"-4"-5"-7"\--| 2)
A|-----------------------------------------------|
E|-----------------------------------------------|

[Riff B.2]
e|------------------------------------------------|
B|------------------------------------------------|
G|----7"----9"-------10"\-----7"----9"-------10"\-|(Gtr
D|-7"----7"----7"-7"-------7"----7"----7"-7"------| 1)
A|------------------------------------------------|
E|------------------------------------------------|

e|------------------------------------------------|
B|------------------------------------------------|
G|----7"----------------------7"------------------|(Gtr
D|-7"----7"-8"-7"-7"-8"\---7"----7"-8"-7"-5"-4"\--| 2)
A|------------------------------------------------|
E|------------------------------------------------|

[Riff B.1]
e|-----------------------------------------------|
B|-----------------------------------------------|
G|----4"----6"-------7"\-----4"----6"-------7"\--|(Gtr
D|-4"----4"----4"-4"------4"----4"----4"-4"------| 1)
A|-----------------------------------------------|
E|-----------------------------------------------|

e|-----------------------------------------------|
B|-----------------------------------------------|
G|----4"---------------------4"------------------|(Gtr
D|-4"----4"-5"-4"-4"-5"\--4"----4"-5"-4"-5"-7"\--| 2)
A|-----------------------------------------------|
E|-----------------------------------------------|

[Riff B.2]
e|------------------------------------------------|
B|------------------------------------------------|
G|----7"----9"-------10"\-----7"----9"-------10"\-|(Gtr
D|-7"----7"----7"-7"-------7"----7"----7"-7"------| 1)
A|------------------------------------------------|
E|------------------------------------------------|

e|------------------------------------------------|
B|------------------------------------------------|
G|----7"----------------------7"------------------|(Gtr
D|-7"----7"-8"-7"-7"-8"\---7"----7"-8"-7"-5"-4"\--| 2)
A|------------------------------------------------|
E|------------------------------------------------|

[Riff A.2] (x2)
e|---------------------------------------------------------------------|
B|---------------------------------------------------------------------|
G|-4---------------------------------7---------------------------------|(Gtrs 1
D|-4---------------------------------7---------------------------------|  & 2)
A|-2-2222-2222--2222-2222--2220-2224-5-5555-5555--5555-5555--5554-5557-|
E|-2---------------------------------5---------------------------------|
     .... ....  .... ....  .... ....   .... ....  .... ....  .... ....

[Riff B.1]
e|-----------------------------------------------|
B|-----------------------------------------------|
G|----4"----6"-------7"\-----4"----6"-------7"\--|(Gtr
D|-4"----4"----4"-4"------4"----4"----4"-4"------| 1)
A|-----------------------------------------------|
E|-----------------------------------------------|

e|-----------------------------------------------|
B|-----------------------------------------------|
G|----4"---------------------4"------------------|(Gtr
D|-4"----4"-5"-4"-4"-5"\--4"----4"-5"-4"-5"-7"\--| 2)
A|-----------------------------------------------|
E|-----------------------------------------------|

[Riff B.2]
e|------------------------------------------------|
B|------------------------------------------------|
G|----7"----9"-------10"\-----7"----9"-------10"\-|(Gtr
D|-7"----7"----7"-7"-------7"----7"----7"-7"------| 1)
A|------------------------------------------------|
E|------------------------------------------------|

e|------------------------------------------------|
B|------------------------------------------------|
G|----7"----------------------7"------------------|(Gtr
D|-7"----7"-8"-7"-7"-8"\---7"----7"-8"-7"-5"-4"\--| 2)
A|------------------------------------------------|
E|------------------------------------------------|

[Riff B.1]
e|-----------------------------------------------|
B|-----------------------------------------------|
G|----4"----6"-------7"\-----4"----6"-------7"\--|(Gtr
D|-4"----4"----4"-4"------4"----4"----4"-4"------| 1)
A|-----------------------------------------------|
E|-----------------------------------------------|

e|-----------------------------------------------|
B|-----------------------------------------------|
G|----4"---------------------4"------------------|(Gtr
D|-4"----4"-5"-4"-4"-5"\--4"----4"-5"-4"-5"-7"\--| 2)
A|-----------------------------------------------|
E|-----------------------------------------------|

[Riff B.2]
e|------------------------------------------------|
B|------------------------------------------------|
G|----7"----9"-------10"\-----7"----9"-------10"\-|(Gtr
D|-7"----7"----7"-7"-------7"----7"----7"-7"------| 1)
A|------------------------------------------------|
E|------------------------------------------------|

e|------------------------------------------------|
B|------------------------------------------------|
G|----7"----------------------7"------------------|(Gtr
D|-7"----7"-8"-7"-7"-8"\---7"----7"-8"-7"-5"-4"\--| 2)
A|------------------------------------------------|
E|------------------------------------------------|

[B.3 w/delay and chorus] (x3)
e|---1-----------------h--|
B|-------1---0---0----0-1-|
G|------------------------|(Gtr
D|------------------------| 1)
A|------------------------|
E|-1----------------------|

e|---1(1)--------------h--|
B|-------1(1)0(0)0(0)-0-1-|   (only guitar II plays w/delay, the notes in the ()
G|------------------------|(Gtr  are the delayed notes.)
D|------------------------| 2)
A|------------------------|
E|-1----------------------|

[Fill 2]
e|---------------|
B|---------------|
G|-5-------------|(Gtrs 1
D|-3-5-4--4--4/5-|  & 2)
A|-3-3-2--2--2/3-|
E|---3-2--2--2/3-|

[Riff C.1] (x3)
e|-----------------------|
B|-----------------------|
G|-----5-5--5--4--4--4/5-|(Gtrs 1
D|-----3-3---------------|  & 2)
A|----------3--2--2--2/3-|
E|-1-1-------------------|
   . .

[Fill 3]
e|-------------------|
B|-------------------|
G|-----5-------------|(Gtrs 1
D|-----3-5-4--4--4/5-|  & 2)
A|-----3-3-2--2--2/3-|
E|-1-1---3-2--2--2/3-|
  . .

[Riff C.2] (x2)
(Gtrs 1 & 2)
e|-----------------------------------------------------------------------------|
B|-----------------------------------------------------------------------------|
G|-----------------------------------------------------------------------------|
D|------3----------------------------h--------3-----------------------------h--|
A|-------------3------2------2------2-3--------------3------2----2----2----2-3-|
E|-1111---1111---1111---1111---1111------1111---1111---1111---11---11---11-----|
  ....   ....   ....   ....   ....      ....   ....   ....   ..   ..   ..

[Riff C.3] (x2)
(Gtr 2 plays Riff C.2 (1.5) then play Fill 2)
e|------------------------------------------------------------------------------|
B|------------------------------------------------------------------------------|
G|------10---------------------------h---------10---------------------------h---|
D|-------------10-----9------9------9-10--------------10-----9----9----9---9-10-|
A|-8888---8888---8888---8888---8888-------8888---8888---8888---88---88---88-----|
E|------------------------------------------------------------------------------|
  ....    ....   ....   ....   ....       ....    ....    ....   ..   ..   ..

[Riff D.1] (x2)
e|---------------------|
B|---------------------|
G|-4----7----10---14---|(Gtrs 1
D|-4----7----10---14---|  & 2)
A|-2----5----9----12---|
E|-2----5----9----12---|

[Riff D.2] (x2)
(Gtr 2 plays Riff D.1 on top of Riff D.2 and D.3 4x)
e|-------------------------------------------------------------------------|
B|-------------------------------------------------------------------------|
G|----4"----6"----7"-----7"----9"----11"-----11"---13"---14"---------------|(Gtr
D|-4"----4"----4"-----7"----7"----7"------11"---11"---11"---------h-p------| 1)
A|-----------------------------------------------------------4-5-4-5-4-2~--|
E|-------------------------------------------------------------------------|

[Riff D.3]                                                      1.
e|--------------------------------------------------------17"-|--------------|
B|------------------------------------19"-----19"---21"-------|------h-p-----|
G|----16"---18"---19"-----19"---21"--------18"---18"---18"----|-6-7-6-7-6-4~-|(Gtr
D|-16"---16"---16"-----19"---19"---19"------------------------|--------------| 1)
A|------------------------------------------------------------|--------------|
E|------------------------------------------------------------|--------------|

 2.
e|------------|
B|------------|
G|-4-7-6-7-9~-|
D|------------|
A|------------|
E|------------|

(Gtr 2)
(Gtrs enter  Riff A.1 both Gtr 1&2) (x2)
e|-----|-----------|------------------------------------------------------------|
B|-----|-----------|------------------------------------------------------------|
G|-----|-----6-7-9-|-4-----------------------------7----------------------------|
D|SYNTH|-----6-7-9-|-4-----------------------------7----------------------------|
A|-----|-555-4-5-7-|-2--2222--2222-2222--2220-2224-5--5555--5555-5555--5554-5557|
E|-----|-----4-5-7-|-2-----------------------------5----------------------------|
         ...            ....  .... ....  .... ....    ....  .... ....  .... ....

[Solo 1] w/wah wah                 4x                                   4x
e|------------------------------------|------------------------------------|
B|------------------------------------|--t-p-p----t-p-p----t-p-p----t-p-p--|
G|--t-p-p----t-p-p----t-p-p----t-p-p--|-14-10-7--14-10-7--15-10-7--15-10-7-|(Gtr
D|-16-12-9--16-12-9--17-12-9--17-12-9-|------------------------------------| 1)
A|------------------------------------|------------------------------------|
E|------------------------------------|------------------------------------|

                                  4x                                   4x
e|------------------------------------|------------------------------------|
B|------------------------------------|--t-p-p----t-p-p----t-p-p----t-p-p--|
G|--t-p-p----t-p-p----t-p-p----t-p-p--|-14-10-7--14-10-7--15-10-7--15-10-7-|(Gtr
D|-16-12-9--16-12-9--17-12-9--17-12-9-|------------------------------------| 1)
A|------------------------------------|------------------------------------|
E|------------------------------------|------------------------------------|

e|-----|
B|-----|
G|-11~-|(Gtr
D|-----| 1)
A|-----|
E|-----|

[Riff A.2] (x2)
e|---------------------------------------------------------------------|
B|---------------------------------------------------------------------|
G|-4---------------------------------7---------------------------------|(Gtrs 1
D|-4---------------------------------7---------------------------------|  & 2)
A|-2-2222-2222--2222-2222--2220-2224-5-5555-5555--5555-5555--5554-5557-|
E|-2---------------------------------5---------------------------------|
     .... ....  .... ....  .... ....   .... ....  .... ....  .... ....

[Riff B.1]
e|-----------------------------------------------|
B|-----------------------------------------------|
G|----4"----6"-------7"\-----4"----6"-------7"\--|(Gtr
D|-4"----4"----4"-4"------4"----4"----4"-4"------| 1)
A|-----------------------------------------------|
E|-----------------------------------------------|

e|-----------------------------------------------|
B|-----------------------------------------------|
G|----4"---------------------4"------------------|(Gtr
D|-4"----4"-5"-4"-4"-5"\--4"----4"-5"-4"-5"-7"\--| 2)
A|-----------------------------------------------|
E|-----------------------------------------------|

[Riff B.2]
e|------------------------------------------------|
B|------------------------------------------------|
G|----7"----9"-------10"\-----7"----9"-------10"\-|(Gtr
D|-7"----7"----7"-7"-------7"----7"----7"-7"------| 1)
A|------------------------------------------------|
E|------------------------------------------------|

e|------------------------------------------------|
B|------------------------------------------------|
G|----7"----------------------7"------------------|(Gtr
D|-7"----7"-8"-7"-7"-8"\---7"----7"-8"-7"-5"-4"\--| 2)
A|------------------------------------------------|
E|------------------------------------------------|

[Riff B.1]
e|-----------------------------------------------|
B|-----------------------------------------------|
G|----4"----6"-------7"\-----4"----6"-------7"\--|(Gtr
D|-4"----4"----4"-4"------4"----4"----4"-4"------| 1)
A|-----------------------------------------------|
E|-----------------------------------------------|

e|-----------------------------------------------|
B|-----------------------------------------------|
G|----4"---------------------4"------------------|(Gtr
D|-4"----4"-5"-4"-4"-5"\--4"----4"-5"-4"-5"-7"\--| 2)
A|-----------------------------------------------|
E|-----------------------------------------------|

[Riff B.2]
e|------------------------------------------------|
B|------------------------------------------------|
G|----7"----9"-------10"\-----7"----9"-------10"\-|(Gtr
D|-7"----7"----7"-7"-------7"----7"----7"-7"------| 1)
A|------------------------------------------------|
E|------------------------------------------------|

e|------------------------------------------------|
B|------------------------------------------------|
G|----7"----------------------7"------------------|(Gtr
D|-7"----7"-8"-7"-7"-8"\---7"----7"-8"-7"-5"-4"\--| 2)
A|------------------------------------------------|
E|------------------------------------------------|

[Riff E.1] (x2)
e|----------------------------------------------------------|
B|----------------------------------------------------------|
G|------------h---------------------------------------------|(Gtr
D|-6---------4-6--6----------h------------------------6--p--| 1)
A|-4-4"----7------4-4"----4-7-6--6-----6-----------6"---7-6-|
E|-------------------------------4-4"--4-4"--4"-7"----------|

e|----------------------------------------------------------|
B|----------------------------------------------------------|
G|---------------------------p------------------------------|(Gtr
D|-6----------h---6---------6-4-----------------------6--p--| 2)
A|-4-4"----4-6-7--4-4"----4------6-----6-----------6"---7-6-|
E|-------------------------------4-4"--4-4"--4"-7"----------|

 E.2                               1.                        2.
e|--------------------------------|-------------------------|-------------------|
B|--------------------------------|-------------------------|-------------------|
G|--------------------------------|-------------------------|-------------------|
D|--------------------------------|-------2-----------2-----|------2-------9-8-7|
A|-4-----4--4--p---4-----4-----p--|-2-----2-----2-----2-----|-2----2-----2-7-6-5|
E|-2-2"--2----5-4--2-2"--2--5-4-2-|-0-0"----0"--0-0"----0"--|-0-0"---0"--0------|

 F.1                       2x                         1.                 2.
e|---------------------------|-----------------------|----------------|---------|
B|---------------------------|-----------------------|----------------|---------|
G|---------------------------|-----------------------|----------------|---------|
D|-6----6--6-----------------|---------------------2-|----------------|---9-8-7-|
A|-4----4--4----6----6--6----|-4----4--4--4----p---2-|----------------|---7-6-5-|
E|-4----4--4----4----4--4----|-2----2--2----5-4-2--0-|-0000-0000-0000-|-0-------|
        .            .              .                  .... .... .... 

[Solo 2 Gtr3 plays Riff F.1 on top]                          
e|-------------------------------------------------------------|
B|-------------------------------/16-14------16-14----------16-|
G|-/13-11------13-11----------11--------16~--------16-15-16----|
D|--------14~--------14-13-14----------------------------------|
A|-------------------------------------------------------------|
E|-------------------------------------------------------------|

e|-------------------------------------------------------------|
B|-------------------------------------------------------------|
G|-------------------------------/16-15------16----------------|
D|-/14-13------14-13----------14--------18~-----18----------18-|
A|--------16~--------16----16----------------------18----18----|
E|----------------------16----------------------------16-------|

    h  p  p      h  p  p      h  p  p      h  p  p
e|14-16-14-12--14-16-14-12--14-16-14-12--14-16-14-12-|
B|---------------------------------------------------|
G|---------------------------------------------------|
D|---------------------------------------------------|
A|---------------------------------------------------|
E|---------------------------------------------------|

e|--h--p--p------h--p--p------h--p--p------h--p--p---|
B|16-17-16-14--16-17-16-14--16-17-16-14--16-17-16-14-|
G|---------------------------------------------------|
D|---------------------------------------------------|
A|---------------------------------------------------|
E|---------------------------------------------------|

                   h  p  p                   h  p  p
e|---h--p--p----16-17-16-14----h--p--p----16-17-16-14--------------------------|
B|-16-17-16-14---------------16-17-16-14---------------/16-14----------14------|
G|------------------------------------------------------------16-15-16----16~--|
D|-----------------------------------------------------------------------------|
A|-----------------------------------------------------------------------------|
E|-----------------------------------------------------------------------------|

e|---h--p--p------h--p--p------h--p--p------h--p--p----------------------------|
B|-16-17-16-14--16-17-16-14--16-17-16-14--16-17-16-14--/16-14----------14------|
G|------------------------------------------------------------16-15-16----16~--|
D|-----------------------------------------------------------------------------|
A|-----------------------------------------------------------------------------|
E|-----------------------------------------------------------------------------|

e|-----------------------------------------------------------------------------------------------|
B|-----------------------------------------------------------------------------------------------|
G|-11-9-------h---9------------------------------------------------------------------------------|
D|-------13-11-13----13--------------------------------9--7-----------7--------------------------|
A|----------------------12~----------------------------------11-9--11----11/14-14\11-11/14-14/16-|
E|-----------------------------------------------------------------------------------------------|

e|-----------------------------------------------------------------------------------------------|
B|-----------------------------------------------------------------------------------------------|
G|-14-13------h---13----14-----------------------------------------------------------------------|
D|-------16-14-16----16----16---h--p--------h--p-------------------------------------------------|
A|----------------------------16-17-16-14-14-16-14-------------------------------------------h---|
E|-------------------------------------------------17--16-14-12-11-12-14-12/16-16\12-12/16-16-17-|

e|----------------------------------------------------|
B|----------------------------------------------------|
G|----------------------------------------------------|
D|-11-------------------------------------------------|
A|----14-12-11-12-14-12~------------------------------|
E|----------------------------------------------------|

e|----------------------------------------------------|
B|----------------------------------------------------|
G|----------------------14----------------------------|(Gtr 2)
D|-------------------------16---h--p--------h--p------|
A|----------------------------16-17-16-14-14-16-14----|
E|-17-16-14-12-14-16-14----------------------------17-|       

e|-------------------------------------------------------------------------|
B|-------------------------------------------------------------------------|
G|---------------------------------------h--h-------------h--h------h--h---|(Gtr
D|------------------------------h--h--11-12-14----h--h--11-12-14--11-12-14-| 1)
A|-14-12-11----11-12----h--h--11-12-14----------11-12-14-------------------|
E|----------14--------12-14-16---------------------------------------------|
                                                                         
e|-------------------------------------------------------------------------|
B|-------------------------------------------------------------------------|
G|--------------------------------------h--h--------------h--h------h--h---|
D|-------------------------------h--h--11-12-14----h--h--11-12-14--11-12-14|
A|----------------------h--h--11-12-14----------11-12-14-------------------|
E|-16-14-12-11-12-14--12-14-16---------------------------------------------|

[Riff G.1] (x3)
e|---2-----------------h--|
B|-------2---1---1----1-2-|
G|------------------------|(Gtr
D|------------------------| 1)
A|------------------------|
E|-2----------------------|

e|---2(2)--------------h--|
B|-------2(2)1(1)1(1)-1-2-|   (only guitar II plays w/delay, the notes in the ()
G|------------------------|Gtr  are the delayed notes.)
D|------------------------| 2
A|------------------------|
E|-2----------------------|

[Fill 5]
e|-----------------|
B|-----------------|
G|-----6-----------|(Gtrs 1
D|-----4-6-5-5-5/6-|  & 2)
A|-4-4---4-3-3-3/4-|
E|-2-2-------------|
   . .

[Riff G.2] (x2)
e|-----------------------------------------------------------------------------|
B|-----------------------------------------------------------------------------|
G|-----------------------------------------------------------------------------|
D|------4----------------------------h--------4-----------------------------h--|
A|-------------4------3------3------3-4--------------4------3----3----3----3-4-|
E|-2222---2222---2222---2222---2222------2222---2222---2222---22---22---22-----|
   ....   ....   ....   ....   ....      ....   ....   ....   ..   ..   ..

[Riff G.3 Gtr2 plays Riff G.2 (2 times) on top]
e|------------------------------------------------------------------------------|
B|------------------------------------------------------------------------------|
G|------11---------------------------h--------11------------------------------h-|
D|-------------11-----10-----10----10-11-------------11-----10---10---10---10-11|
A|-9999---9999---9999---9999---9999------9999---9999---9999---99---99---99------|
E|------------------------------------------------------------------------------|
   ....    ....    ....    ....    ....        ....    ....    ....    ..    ..    ..

[Riff G.2]
e|-----------------------------------------------------------------------------|
B|-----------------------------------------------------------------------------|
G|-----------------------------------------------------------------------------|
D|------4----------------------------h--------4-----------------------------h--|
A|-------------4------3------3------3-4--------------4------3----3----3----3-4-|
E|-2222---2222---2222---2222---2222------2222---2222---2222---22---22---22-----|
   ....   ....   ....   ....   ....      ....   ....   ....   ..   ..   ..

[Riff D.1] (x2)
e|---------------------|
B|---------------------|
G|-4----7----10---14---|(Gtrs 1
D|-4----7----10---14---|  & 2)
A|-2----5----9----12---|
E|-2----5----9----12---|

[Riff D.2] (x2)
(Gtr 2 plays Riff D.1 on top of Riff D.2 and D.3 4x)
e|-------------------------------------------------------------------------|
B|-------------------------------------------------------------------------|
G|----4"----6"----7"-----7"----9"----11"-----11"---13"---14"---------------|(Gtr
D|-4"----4"----4"-----7"----7"----7"------11"---11"---11"---------h-p------| 1)
A|-----------------------------------------------------------4-5-4-5-4-2~--|
E|-------------------------------------------------------------------------|

(Gtr 2 plays Riff D.1 on top of Riff D.2 and D.3 4x)

[Riff G.3 Gtr2 plays Riff G.2 (2 times) on top]
e|------------------------------------------------------------------------------|
B|------------------------------------------------------------------------------|
G|------11---------------------------h--------11------------------------------h-|
D|-------------11-----10-----10----10-11-------------11-----10---10---10---10-11|
A|-9999---9999---9999---9999---9999------9999---9999---9999---99---99---99------|
E|------------------------------------------------------------------------------|
   ....    ....    ....    ....    ....        ....    ....    ....    ..    ..    ..

e|-------|----|
B|-------|----|
G|-4-7-6-|-7~-|
D|-------|----|
A|-------|----|
E|-------|----|
         |    |
         |----|
         |----|
         |-7~-|
         |-7~-|
         |-5~-|
         |----|

[Riff I.1]
e|-------|-------------------------------------------------|
B|-------|-------------------10"---11-8--------------------|
G|-------|-7-----9"---10----------------7------------9"-6--|Gtr
D|-Synth-|---7------7----7-------7--------5"---------------| I
A|-------|-----5-----------5-----------------5-4-5-7-------|
E|-------|-------------------------------------------------|

e|-------|-------------------------------------------------|
B|-------|-------------------------------------------------|
G|-------|-------------------------------------------------|Gtr
D|-Synth-|-------------------8\------------------ hp-------| II
A|-------|-------------------8\-----------------8787-------|
E|-------|-------------------------3"----------5----9~-----|

[I.2]
e|-------------------------------------------------|
B|-------------------10"---11-8--------------------|
G|-7-----9"---10----------------7------------9"-6--|(Gtr
D|---7------7----7-------7--------5"---------------| 1)
A|-----5-----------5-----------------5-4-5-7-------|
E|-------------------------------------------------|

e|-------------------------------------------------|
B|-------------------------------------------------|
G|----------------------------------------------hp-|(Gtr
D|----------------------------------------hp--8787-| 2)
A|-5"-----------------------------------8787-------|
E|-------------------------3"----------5----9------|

[I.3]
e|-------------------------------------------------|
B|-------------------10"---11-8--------------------|
G|-7-----9"---10----------------7------------9"-6--|(Gtr
D|---7------7----7-------7--------5"---------------| 1)
A|-----5-----------5-----------------5-4-5-7-------|
E|-------------------------------------------------|

e|-------------------------------------------------|
B|-------------------------------------------------|
G|-------------------------------------------------|(Gtr
D|----------------------------------------hp-------| 2)
A|-5"-----------------------------------8787-------|
E|-------------------------3"----------5----9~-----|

(Gtrs enter  Riff A.1 both Gtr 1&2) (x2)
e|-----|-----------|------------------------------------------------------------|
B|-----|-----------|------------------------------------------------------------|
G|-----|-----6-7-9-|-4-----------------------------7----------------------------|
D|SYNTH|-----6-7-9-|-4-----------------------------7----------------------------|
A|-----|-555-4-5-7-|-2--2222--2222-2222--2220-2224-5--5555--5555-5555--5554-5557|
E|-----|-----4-5-7-|-2-----------------------------5----------------------------|
         ...            ....  .... ....  .... ....    ....  .... ....  .... ....

[I.3]
e|-------------------------------------------------|
B|-------------------10"---11-8--------------------|
G|-7-----9"---10----------------7------------9"-6--|(Gtr
D|---7------7----7-------7--------5"---------------| 1)
A|-----5-----------5-----------------5-4-5-7-------|
E|-------------------------------------------------|

e|-------------------------------------------------|
B|-------------------------------------------------|
G|-------------------------------------------------|(Gtr
D|----------------------------------------hp-------| 2)
A|-5"-----------------------------------8787-------|
E|-------------------------3"----------5----9~-----|

(Gtrs enter  Riff A.1 both Gtr 1&2) (x2)
e|-----|-----------|------------------------------------------------------------|
B|-----|-----------|------------------------------------------------------------|
G|-----|-----6-7-9-|-4-----------------------------7----------------------------|
D|SYNTH|-----6-7-9-|-4-----------------------------7----------------------------|
A|-----|-555-4-5-7-|-2--2222--2222-2222--2220-2224-5--5555--5555-5555--5554-5557|
E|-----|-----4-5-7-|-2-----------------------------5----------------------------|
         ...            ....  .... ....  .... ....    ....  .... ....  .... ....

e|----|
B|----|
G|-7~-|
D|----|
A|----|
E|----|

e|----|
B|----|
G|-7~-|
D|-7~-|
A|-5~-|
E|----|



************************************

| h    Hammer-on
| (n)  Ghost note
| /    Slide up
| .    Staccato
| p    Pull-off
| ~    Vibrato
| t    Tapping
| \    Slide down

************************************

            
            
Suggest correction
Creating personal tab
Creating personal tab
You can edit any tab online and save it as your Personal.

You can edit, replace or remove any tab part or add personal notes – all changes will be seen only by you.

Personal tabs can be accessed anytime from any device, even offline.
Learn more »
comments
print report bad tab
9 comments total. Showing first comments.
0 reply
*don-gappo* 10 Jan 18, 2006 08:15 AM

i jus wanna know how long it took 2 tab this song man!
this song rocks!

-1 reply
Gate Serpent 10 Dec 03, 2006 06:56 PM

I agree with Gappo, how long???? well great tab, it's pretty good except for some parts but good jo!!! pat your self on the back!!!!

0 reply
iplay4luv 41 Jun 10, 2007 01:34 PM

woa, surprised me it was in standard tuning...i thought it would be dropped c or dropped b

guest
Wanna post a correction for this tab? Suggest correction