Oops, an error
Loading. Please wait.

Family Waves ukulele

210 views 1 this week
no commentswrite comment
1 2 3 4 5
2 more votes to show rating
add to favorites
×
Save as Personal and add changes to this tab that will be seen only by you. Learn more ›
×
You can save this tab as Personal to edit and correct it or add notes. All changes will be seen only by you. Learn more »
launch autoscroll
font size
0
reset
transpose
0
reset
simplify chords
display chords
guitar tuner
edit
Autoscroll
slow
fast
+/-
esc
set tempo
stop
Author
Difficulty
Strumming
There is no strumming pattern for this song yet. and get +5 IQ
chords used:
   C    C5   Am   Am*  F    G    G7   Fdim   C+7sus4
A|-3----3----0----3----0----2----2----2------2-----
E|-0----3----0----0----1----3----1----1------1-----
C|-0----0----0----0----0----2----2----2------0-----
G|-0----0----2----2----2----0----0----1------0-----

==============================================

   C5                                C5
A|-3---------------------------3---|-3---------------------------3---
E|-3---3---5---3---0-0-3-3-5-------|-3---3---5---3---0-0-3-3-5-------
C|-0-------------------------------|-0-------------------------------
G|-0-0---0---0---0-----------------|-0-0---0---0---0-----------------
   Am*                               Am*
A|-3-------------------------------|-3-------------------------------
E|-0-0-0-0-3-0-0-0-----0-0-2---5---|-0-0-0-0-3-0-0-0-----0-0-2---5---
C|-0---------------2-2-------------|-0---------------2-2-------------
G|-2-------------------------------|-2-------------------------------
   F               G
A|(0)-------------(2)--------------
E|(1)------1------(3)------3-------
C|-0---------------2---------------
G|(2)-------------(0)--------------

riff!
A|-3-3-3-3-0-0-2-2-3-3-2-2-0-0-0-0-
E|-0-0-3-3-3-3-3-3-0-0-0-0-0-0-3-3-
C|-0-0-0-0-0-0-0-0-0-0-0-0-0-0-0-0-
G|-0-0-0-0-0-0-0-0-0-0-0-0-0-0-0-0-

C
i got a secret that nobody knows
and when i am sleeping the story will grow
Am
out of my heart, dear, and into the air
it tells me to follow, but i wouldn't dare
F                       G                          riff!
i know if i do, it will lead me right back to your door

(on your own)
C
pull us together, pull us apart
fool the weather, fool your heart
Am
you'll find me there on the shore
F                   G7
fighting the family waves
C
and nothing changes, it stays the same
after fifteen months, it's still your name
Am                                F
that's on my lips, until we get a chance
G7                  riff!
to get back together

the tide has been shifting for years upon years
everyone knew but it fell on deaf ears
by the time we discovered, it was too late
cast ourselves out as the victims of fate
but now we realize the power was ours all along

F
and i can't stand the thought
                   Am
the feeling of his heartbeat next to yours
                        F
but no one knows what's said behind closed doors
                    G7
there's nothing but sorries

we dream of something good
but nothing ever turns out like it should
we're falling through the cracks where we once stood
there's nothing but sorries
    Fdim    C+7sus4     C
but sorries brought you here

(wop wop solo)
C
C
Am
F   G

C
family waves are coming and i'm diving deep inside of it
family waves are coming and you're running at the sight of it
Am
family waves are coming and i'm dreaming of our sons and daughters
F                                  G
family waves are coming and you're heading for the open waters

(on your own)
(fighting the family waves)

            
            
Suggest correction
Creating personal tab
Creating personal tab
You can edit any tab online and save it as your Personal.

You can edit, replace or remove any tab part or add personal notes – all changes will be seen only by you.

Personal tabs can be accessed anytime from any device, even offline.
Learn more »
Give kudos to tab author, rate the tab!
1 2 3 4 5
comments
print report bad tab
guest
You may want to rate the tab now too:
select rating
Wanna post a correction for this tab? Suggest correction