Oops, an error
Loading. Please wait.

Dont Pretend You Didnt Know tab

5,202 views 12 this week
3 commentsread comments
1 2 3 4 5
x 8
add to favorites
×
Save as Personal and add changes to this tab that will be seen only by you. Learn more ›
×
You can save this tab as Personal to edit and correct it or add notes. All changes will be seen only by you. Learn more »
launch autoscroll
font size
0
reset
how to read this tab
guitar tuner
edit
Autoscroll
slow
fast
+/-
esc
set tempo
stop
Dinosaur Jr.
"Don't Pretend You Didn't Know"
From the album: I Bet On Sky, (2012)
Songwriter: J Mascis

These are just the chords.. no strum patterns or solo parts are notated.

Capo: 9th Fret

Verse:("Waiting all the time...")

E-0---0-------2---------------------|
B-1---3---1---3---------------------|
G-2---0---0---2---------------------|
D-2---x---2---0---------------------|
A-0---2---3-------------------------|
E-----------------------------------|

Chorus:("Calling all the time...")

E--0------------0-------------------|
B--0---0--------0---0---------------|
G--0---0--------0---0---0---0-------|
D--2---2--------2---2---0---0-------|
A--2---3--------2---3---2---X-------|
E--0------------0-------3---2-------|

            
            
Suggest correction
Creating personal tab
Creating personal tab
You can edit any tab online and save it as your Personal.

You can edit, replace or remove any tab part or add personal notes – all changes will be seen only by you.

Personal tabs can be accessed anytime from any device, even offline.
Learn more »
comments
print report bad tab
3 comments total.
0 reply
LargeReptileSnr 50 Dec 18, 2012 10:58 AM

For the verse I play, the C doesn't quite sound right to my ears:

e|--0--|--0--|
B|--3--|--3--|
G|--0--|--0--|
D|--x--|--2--|
A|--2--|--3--|
E|-----|-----|

0 reply
LargeReptileSnr 50 Dec 18, 2012 11:03 AM

and for the chorus, instead of the cmaj7 try Em but pulling off the D string--gives that nice ringing tone you can hear on the record

0 reply
Molloy65 10 Jan 30, 2013 06:18 AM

Sounds good, had no idea the song was so easy to play.

guest
You may want to rate the tab now too:
select rating
Wanna post a correction for this tab? Suggest correction