Oops, an error
Loading. Please wait.

In A Jar tab

version 1
version 1

Whole song

6,623 views 9 this week
1 commentread comment
1 2 3 4 5
x 3
add to favorites
×
Save as Personal and add changes to this tab that will be seen only by you. Learn more ›
×
You can save this tab as Personal to edit and correct it or add notes. All changes will be seen only by you. Learn more »
launch autoscroll
font size
0
reset
how to read this tab
guitar tuner
backing track
0:00
0:00
edit
Autoscroll
slow
fast
+/-
esc
set tempo
stop
Author
Dinosaur Jr. - "In A Jar"
off of the best guitar record ever waxed... You're Living All Over Me

VERSE (I`ll be grazing by your window...)
C(01023x) G(330023)  E(001220) A(02220x)      [x2]

| C | G | A | A |

CHORUS (I know you don`t have the patience...)

D(2320xx) D A/E D  (x2)
on A quickly goto E.

| D | D | G~ | A#~(667886) |   (x4)
~="let ring"

then repeat the chorus chords (x2)
when Mascis says "just a little more" you play B(778997)

like this : | B | B | B | B |

    F#     F#
e|------|------|------------|--------|
B|------|------|------------|--------|
G|--11--|--11--|------------|--------|  (x4)
D|--11--|--11--|--11/13/11--|--9/7---|
A|--9---|--9---|------------|--------|
E|------|------|--9-/11/9---|--7/5---|


(I`ll watch you fall apart...)
| D | C#(9-9-10-11-11-9) | D |  (x3)

    first       second      third           (time)
e|-----------|-----------|---------------|
B|-----------|-----------|---------------|
G|-----------|-----------|----------9^---|
D|------7----|------7----|-------7-------|
A|--7-9---7--|--7-9------|--7-9----------|
E|-----------|--------0--|---------------|


Solo - chords
    A
e|-----|-------------------|
B|-----|--2-------3-2-0-2--|
G|--2--|--3-2-4-2----------|
D|--2--|--0----------------| (x4)
A|--0--|-------------------|
E|-----|-------------------|

...the solo
e|-----------------------------------------------------------------------|
B|-----------------------------------------------------------------------|
G|--/14-13---------------------------------------------------------------|
D|---------14-------12-11-------12-11-12-11-12-14b/r---------------------|
A|------------14-12----------12------------------------------------------|
E|------------------------14---------------------------------------------|

e|--------------------14----14/12----14----17b/r-14-12-------------------|
B|--14-12-14-15-14-15----15-------15----15-------------15-15b/r----------|
G|-----------------------------------------------------------------------|
D|--------------------------------------------------------------12~------|
A|------------------------------------------------------------(whammy)---|
E|-----------------------------------------------------------------------|

..play the CHORUS without the first part of the chords
..play just a little bit of VERSE ending on B(?not too sure)

            
            
Suggest correction
Creating personal tab
Creating personal tab
You can edit any tab online and save it as your Personal.

You can edit, replace or remove any tab part or add personal notes – all changes will be seen only by you.

Personal tabs can be accessed anytime from any device, even offline.
Learn more »
Give kudos to tab author, rate the tab!
1 2 3 4 5
comments
print report bad tab
1 comment total.
0 reply
ummo 10 Feb 11, 2009 01:12 PM

Verse:
C|G|Em|B
C|G|Am

Bridge:
D|Am

Chorus:
D|C|Bb

INTERLUDE
repeat it 4 times

F#m F#m
e|------|------|------------|-----------|
B|--10--|--10--|------------|-----------|
G|--11--|--11--|------------|-----------|
D|--11--|--11--|--11/14/11--|--11/9/7---|
A|--9---|--9---|------------|-----------|
E|------|------|-9-/12/9----|--9/7/5----|

THE THIRD PART(I`ll watch you fall apart...)

| D | Dbm(C#m) | D |

E|--4h5h7p5--------

| D | Dbm(C#m) | D |

E|--7h9p7p0--------

| D | Dbm(C#m) | D |

G|----------9bend--------
D|--6h7h-9--------

D|F-E

Solo Rhythm part
A-Em|D B|--------3p2-------- x8
G|--2h4------2h4---

E|F-B|E|F (power chords)

Chorus
Verse

guest
You may want to rate the tab now too:
select rating
Wanna post a correction for this tab? Suggest correction