Oops, an error
Loading. Please wait.

Keeblin tab

version 1
version 1

Whole song

6,023 views 18 this week
3 commentsread comments
1 2 3 4 5
x 9
add to favorites
×
Save as Personal and add changes to this tab that will be seen only by you. Learn more ›
×
You can save this tab as Personal to edit and correct it or add notes. All changes will be seen only by you. Learn more »
launch autoscroll
font size
0
reset
how to read this tab
guitar tuner
edit
Autoscroll
slow
fast
+/-
esc
set tempo
stop
           keeblin' (J. Mascis)
       from the Japan Import "Quest"
      *---->CAPO ON THIRD FRET<-----*

 Come on over........
e|---------------------3----------------3---------------3--5---3--|
B|-----------3-slide-5---5----3-slide-5---5---3-slide-5------5----|
G|-----------0----------------2---------------0-------------------|
D|-----------0----------------0---------------0-------------------|
A|---2-------2----------------0---------------2-------------------|
E|-----3-----3-------------2--2---------------0-------------------|


e|------------------------|
B|------1------0------1---|
G|--------0-----0-----0---|
D|----------2----2----2---|
A|---3----------------3---|
E|------------------------|

 Wonderin' why you need these things to show....
e|--0----------------------------------------------------3--2--------------|
B|--1------------------------1--------------3------------3--3--------------|
G|--2------------------------0--------------0------------0--2--------------|
D|--2------------------------2--------------0---------------0--------------|
A|--0------------------------3--------------2------------------------------|
E|-------------------------------------------------------------------------|

Lyrics:
*Come on over
I just wanna be the same friend
Need it slower
I just wanna get it smooth then
Wonderin' why you need these things to show
Do you have to be it
Grabbin' at you from those years ago
Well I don't like to see it
(*repeat)

I dont wanna turn it out like that
I dont like to see it
All right, just tell me
That's where you're at


*I screwed the timing up a little on this one. Don't forget about the capo.
If you don't use it it will be the same song but it loses the J effect.

            
            
Suggest correction
Creating personal tab
Creating personal tab
You can edit any tab online and save it as your Personal.

You can edit, replace or remove any tab part or add personal notes – all changes will be seen only by you.

Personal tabs can be accessed anytime from any device, even offline.
Learn more »
comments
print report bad tab
3 comments total.
+1 reply
pete-c 233 Oct 29, 2009 03:47 PM

I think the capo's meant to be on the third fret, though I might have a different version possibly. Then again on Martin + Me, he plays it with a capo on the 5th. At least the version on my Where You Been re-issue is capoed on the third anyway.

Yeah, possible really minor correction :] Seems really accurately tabbed otherwise, a really underrated song (and band, for that matter).

0 reply
cassiobertell 10 Mar 13, 2017 07:03 PM

5th fret capo ---> agreed

+1 reply
megannn795 10 Jun 04, 2010 06:15 PM

i'm pretty sure that at the end of the chorus or whatever the second part is called it's supposed to be a D chord (232)instead of what you have. it seems like an easy mistake to make though, and otherwise awesome job

guest
Wanna post a correction for this tab? Suggest correction