Oops, an error
Loading. Please wait.

Little Fury Things tab

version 2
version 2

Whole song

Interactive

7,740 views 18 this week
3 commentsread comments
1 2 3 4 5
x 3
add to favorites
×
Save as Personal and add changes to this tab that will be seen only by you. Learn more ›
×
You can save this tab as Personal to edit and correct it or add notes. All changes will be seen only by you. Learn more »
launch autoscroll
font size
0
reset
how to read this tab
guitar tuner
edit
Autoscroll
slow
fast
+/-
esc
set tempo
stop
I got the tab below from another site and since it wasn't already here I thought I'd post it. 
Therefore I take no credit for it.

Anyway I hope you think it's good and please leave a comment or rate. Thanks!!

CAPO ON THE 2ND FRET!!!!(Tab IS NOT related to the capo position!) 
Intro(w/wah)      G                  Bm
e:----3p2h3p2h3p2h3p2----2------------------|
B:----3------------------3p2h3p2h3p2h3p2h3--|
G:----4------------------4------------------|{repeat a lot}
D:----5------------------4------------------|
A:-----------------------2------------------|
E:------------------------------------------|

Verse 1:(D E F#m D riff played like this.)
e:----5--5--5--5--4----5--4----4----4--6--6----5-------------|
B:----7--7--7--7--5----5--5----5----5--5--5----7-------------|
G:----7--7--7--7--4----4--4----6----6--6--6----7-------------|
D:----7--7--7--7--2----2--2----6----6--6--6----7-------------|
A:----5--5--5--5---------------4----4--4--4----5-------------|
E:--------------------------------------------------5--7--5--|
D        E               C#m        D
Grab, it falls away from me, guess I'll crawl
D        E                    C#m    D
Grab, it all to smash in me, again I'll crawl
D      E                 C#m        D
Try to think what's over me, makes me crawl
D        E              C#m              D
Then she runs away from me, faster than I crawl

Verse 2:
Fm           E   
I stop to call
Fm          E   
Tried to feel it all
Fm                   E                     D   
Stuck my hand and pulled real hard, got stretched in miles, not in yards
Fm        E   
Then I read
Fm           E   
About all those who bleed
Fm                E              D   
All over your lies, sunlight brings the rage out in your eyes

Fill:
e:-------------------------------------------------5----2--0-------|
B:-------------------------------------------------7---------------|
G:----6----6--6--6---/7---/9--9----6----6--6--6----7----------0----|{repeat 3x}
D:-------------------------------------------------7---------------|
A:----4----4--4--4---/5---/7--7----4----4--4--4----5---------------|
E:-----------------------------------------------------------------|

e:-----------------------------------------------------------|
B:-------------------------------------------2\--------------|
G:----4^-4^--------4^-4^--------4^-4^--------2\{dive w/bar}--|
D:-------------------------------------------2\--------------|
A:----4--4--4-4-4--4--4--4-4-4--4--4--4-4-4------------------|
E:----------0-0-0--------0-0-0--------0-0-0------------------|(Repeat Verse 1 twice)


            
            
Suggest correction
Creating personal tab
Creating personal tab
You can edit any tab online and save it as your Personal.

You can edit, replace or remove any tab part or add personal notes – all changes will be seen only by you.

Personal tabs can be accessed anytime from any device, even offline.
Learn more »
Give kudos to tab author, rate the tab!
1 2 3 4 5
comments
print report bad tab
3 comments total.
0 reply
Juffalo 20 Dec 02, 2009 01:55 PM

little confused. do you mean the chord names you supply are not relative to the capo or the fret numbers are not relative to the capo ? or both.

0 reply
RedDevil07 177 Dec 04, 2009 01:09 PM

Well like I said I took this from another site. I think the guy who originally posted it meant that the fret numbers aren't relative to the capo. At least that's the way I play it. Hope that helps!

+2 reply
prokacper 226 Sep 01, 2012 03:08 AM

Everything seems fine, except this one - not Fm, but F#m
Thanks a lot! :)

guest
You may want to rate the tab now too:
select rating
Wanna post a correction for this tab? Suggest correction