Oops, an error
Loading. Please wait.

Teenager In Love bass

version 4
version 4

Whole song

Interactive

243 views 3 this week
1 commentread comment
1 2 3 4 5
2 more votes to show rating
add to favorites
×
Save as Personal and add changes to this tab that will be seen only by you. Learn more ›
×
You can save this tab as Personal to edit and correct it or add notes. All changes will be seen only by you. Learn more »
launch autoscroll
font size
0
reset
guitar tuner
edit
Autoscroll
slow
fast
+/-
esc
set tempo
stop
Author
Difficulty
Dion and The Belmonts 
Teenager in love 

Bass Tabs

Tuning : EADG
Tempo : ... bpm 
Key: C

Intro: 00:01 
G|------------|-----------|-----------||---------|-
D|----6-------|-----------|-----------||---------|-
A|-4~----4----|--8--------|--4--------||-----3-->|- X2
E|----------6-|-----6--2--|-----2--4--||--6------|-

Verse1: 00:12
G|------------|-----------|-----------||---------|-
D|----6-------|-----------|-----------||---------|-
A|-4~----4----|--8--------|--4--------||-----3-->|- 
E|----------6-|-----6--2--|-----2--4--||--6------|-
Each time we have a quarrel 
It almost breaks my heart
G|------------|-----------|-----------||---------|-
D|----6-------|-----------|-----------||---------|-
A|-4~----4----|--8--------|--4--------||-----3-->|- 
E|----------6-|-----6--2--|-----2--4--||--6------|-
'Cause I'm so afraid
That we will have to part

Chorus1: 00:25
G|------------|-----------|-----------||---------|-
D|----6-------|-----------|-----------||---------|-
A|-4~----4----|--8--------|--4--------||-----3-->|- 
E|----------6-|-----6--2--|-----2--4--||--6------|-
Each night I ask the stars up above
G|------------|-----------||-----------|-
D|------------|-----------||-----------|-
A|-4.---------|-----------||--------3>-|- 
E|------------|-----------||--4--6-----|-
Why must I be a teenager in love


Verse2: 00:36
G|------------|-----------|-----------||---------|-
D|----6-------|-----------|-----------||---------|-
A|-4~----4----|--8--------|--4--------||-----3-->|- 
E|----------6-|-----6--2--|-----2--4--||--6------|-
One day I feel so happy
Next day I feel so sad
G|------------|-----------|-----------||---------|-
D|----6-------|-----------|-----------||---------|-
A|-4~----4----|--8--------|--4--------||-----3-->|- 
E|----------6-|-----6--2--|-----2--4--||--6------|-
I guess I'll learn to take
the good with the bad

Chorus2: 00:49
G|------------|-----------|-----------||---------|-
D|----6-------|-----------|-----------||---------|-
A|-4~----4----|--8--------|--4--------||-----3-->|- 
E|----------6-|-----6--2--|-----2--4--||--6------|-
Each night I ask the stars up above
G|------------|-----------||-
D|------------|-----------||-
A|-4.---------|-----------||-
E|------------|-----------||-
Why must I be a teenager in love

Bridge1: 01:01
G|-------------||-----------|-
D|-------3--4~-||-----------|-
A|-4--6--------||-----------|- 
E|-------------||--1---3~---|-
I cried a tear for nobody but you
G|-------------||-----------|-
D|-------3--4~-||-----------|-
A|----x--------||-----------|- 
E|-------------||--1---3~---|-
I'll be a lonely one
G|-------------||-----------|-
D|-------3--4~-||-----------|-
A|----x--------||-----------|- 
E|-------------||--1---3~---|-
If you should say we're through

Verse3: 01:13
G|------------|-----------|-----------||---------|-
D|----6-------|-----------|-----------||---------|-
A|-4~----4----|--8--------|--4--------||-----3-->|- 
E|----------6-|-----6--2--|-----2--4--||--6------|-
Well if you want to make me cry
That won't be so hard to do
G|------------|-----------|-----------||---------|-
D|----6-------|-----------|-----------||---------|-
A|-4~----4----|--8--------|--4--------||-----3-->|- 
E|----------6-|-----6--2--|-----2--4--||--6------|-
If you should say goodbye
I'd still go on loving you

Chorus3: 01:25
G|------------|-----------|-----------||---------|-
D|----6-------|-----------|-----------||---------|-
A|-4~----4----|--8--------|--4--------||-----3-->|- 
E|----------6-|-----6--2--|-----2--4--||--6------|-
Each night I ask the stars up above
G|------------|-----------||-----------|-
D|------------|-----------||--------3>-|-
A|-4.---------|-----------||--4--6-----|- 
E|------------|-----------||-----------|-
Why must I be a teenager in love

Bridge2: 01:37
G|-------------||-----------|-
D|-------3--4~-||-----------|-
A|-4--6--------||-----------|- 
E|-------------||--1---3~---|-
I cried a tear for nobody but you
G|-------------||-----------|-
D|-------3--4~-||-----------|-
A|----x--------||-----------|- 
E|-------------||--1---3~---|-
I'll be a lonely one
G|-------------||-----------|-
D|-------3--4~-||-----------|-
A|----x--------||-----------|- 
E|-------------||--1---3~---|-
If you should say we're through

Verse4: 01:49
G|------------|-----------|-----------||---------|-
D|----6-------|-----------|-----------||---------|-
A|-4~----4----|--8--------|--4--------||-----3-->|- 
E|----------6-|-----6--2--|-----2--4--||--6------|-
Well if you want to make me cry
That won't be so hard to do
G|------------|-----------|-----------||---------|-
D|----6-------|-----------|-----------||---------|-
A|-4~----4----|--8--------|--4--------||-----3-->|- 
E|----------6-|-----6--2--|-----2--4--||--6------|-
And if you should say goodbye
I'd still go on loving you

Chorus4: 02:02
G|------------|-----------|-----------||---------|-
D|----6-------|-----------|-----------||---------|-
A|-4~----4----|--8--------|--4--------||-----3-->|- 
E|----------6-|-----6--2--|-----2--4--||--6------|-
Each night I ask the stars up above
G|------------|-----------||-----------|-
D|------------|-----------||--------3>-|-
A|-4.---------|-----------||--4--6-----|- 
E|------------|-----------||-----------|-
Why must I be a teenager in love

Outro: 02:13
G|------------|-----------|-----------||---------|-
D|----6-------|-----------|-----------||---------|-
A|-4~----4----|--8--------|--4--------||-----3-->|- 
E|----------6-|-----6--2--|-----2--4--||--6------|-
Each night I ask the stars up above
G|------------|-----------||-----------|-
D|------------|-----------||-----------|-
A|-4.---------|-----------||--------3>-|- 
E|------------|-----------||--4--6-----|-
Why must I be a teenager in love

G|------------|-----------|-----------||---------|-
D|----6-------|-----------|-----------||---------|-
A|-4~----4----|--8--------|--4--------||-----3-->|- x3
E|----------6-|-----6--2--|-----2--4--||--6------|-
Why must I be a teenager in love
Why must I be a teenager in love
Why must I be a teenager in love


End: 02:32


Tablature Legend ----------------  
| r  bend and release 
| S  slap
| P  pop 
| x  mute note 
| /  slide up 
| \  slide down 
| h  hammer-on 
| p  pull-off 
| g  grace note 
| ~  vibrato 
| ^  brush up

            
            
Suggest correction
Creating personal tab
Creating personal tab
You can edit any tab online and save it as your Personal.

You can edit, replace or remove any tab part or add personal notes – all changes will be seen only by you.

Personal tabs can be accessed anytime from any device, even offline.
Learn more »
Give kudos to tab author, rate the tab!
1 2 3 4 5
comments
print report bad tab
1 comment total.
0 reply
sheila scotty 16 Nov 12, 2015 05:16 AM

You're doing oldies now ?? but perfectly accurate !!

guest
You may want to rate the tab now too:
select rating
Wanna post a correction for this tab? Suggest correction