Oops, an error
Loading. Please wait.

On Every Street tab

version 3
version 3

Whole song

Interactive

Video

4,655 views 9 this week
1 commentread comment
1 2 3 4 5
x 3
add to favorites
×
Save as Personal and add changes to this tab that will be seen only by you. Learn more ›
×
You can save this tab as Personal to edit and correct it or add notes. All changes will be seen only by you. Learn more »
launch autoscroll
font size
0
reset
how to read this tab
guitar tuner
edit
Autoscroll
slow
fast
+/-
esc
set tempo
stop
Author
Difficulty
There's gotta be a record of you someplace
You gotta be on somebody's books
The lowdown, a picture of your face
Your injured looks
The sacred and profane
The pleasure and the pain
Somewhere your fingerprints remain concrete
                                                           |-------------------|
                                                           |-------------------|
                                                           |--5--5HO7PO5-------|
                                                           |--------------7----|
                                                           |-------------------|
                                                           |-------------------|
And it's your face I'm looking for, on every street
|------12--10-------------------------------------------------|
|--10--------------10--12--13--12-----10----------------------|
|--------------12---------------------------------------------|
|-------------------------------------------------------------|
|-------------------------------------------------------------|
|-------------------------------------------------------------|

|--------------------|
|--------------------|
|--12BU(14)--9-------|
|--------------------|
|--------------------|
|--------------------|
A ladykiller, regulation tattoo
|--------------|
|----------9---|
|--10--12------|
|--------------|
|--------------|
|--------------|
Silver spurs on his heels
|--------------------------------------|
|--------------------------------------|
|--12BU(14)--9-------------------------|
|---------------12----------10--12-----|
|-------------------10--12-------------|
|--------------------------------------|
Says - what can I tell, as I'm standing next to you
She threw herself under my wheels
|-------------------|
|-------5--5--5--5--|
|-------5--5--5--5--|
|--5h7--------------|
|-------------------|
|-------------------|
Oh, it's a dangerous road
And a hazardous load
|---------------------------------------|
|------10b--10b--13--10-----------------|
|--9b--------------------12--9----------|
|-------------------------------12--10--|
|---------------------------------------|
|---------------------------------------|
And the fireworks over liberty explode in the heat
                                                           |-----------------|
                                                           |-----------------|
                                                           |--5--5HO7PO5-----|
                                                           |--------------7--|
                                                           |-----------------|
                                                           |-----------------|
And it's your face I'm looking for, on every street
|------12--10--------------------------12--10---------------------------------|
|--10--------------10--12--13--12--10---------------------10--12--13--12--10--|
|--------------12------------------------------12--9--12----------------------|
|-----------------------------------------------------------------------------|
|-----------------------------------------------------------------------------|
|-----------------------------------------------------------------------------|
A three - chord symphony crashes into space
The moon is hanging upside down
|---------------------------------|
|---------------------------------|
|--9BU(11)--12BU(14)--12--9-------|
|---------------------------------|
|---------------------------------|
|---------------------------------|
I don't know why it is  I'm still on the case
|--------------------------------|
|--------------------------------|
|--12BU(14)--9--12--9------------|
|----------------------12--10----|
|--------------------------------|
|--------------------------------|
It's a ravenous town
|-------------------|
|-------5--5--5--5--|
|-------5--5--5--5--|
|--5h7--------------|
|-------------------|
|-------------------|
And you still refuse to be traced
Seems to me such a waste
|-------------------------------------------------------|
|--9BU(11)---(11)RB9------------------------------------|
|---------------------12--9-----------------------------|
|----------------------------12--10--10--10h12p10-------|
|-------------------------------------------------------|
|-------------------------------------------------------|
And every victory has a taste that's bitter sweet
And it's your face I'm looking for, on every street
|---------------------------------------------|
|---------------------10BU(12)--13BU(15)------|
|--9BU(11)--12BU(14)--------------------------|
|---------------------------------------------|
|---------------------------------------------|
|---------------------------------------------|
And it's your face I'm looking for, on every street

|-------------------------------------------------------------|
|-------------------------------------------------------------|
|-----9--7----------------------9--7--------------------------|
|--7------------7--9--10--9--7-------------------7--9--10--9--|
|-----------10------------------------10--7--10---------------|
|-------------------------------------------------------------|

            
            
Suggest correction
Creating personal tab
Creating personal tab
You can edit any tab online and save it as your Personal.

You can edit, replace or remove any tab part or add personal notes – all changes will be seen only by you.

Personal tabs can be accessed anytime from any device, even offline.
Learn more »
Give kudos to tab author, rate the tab!
1 2 3 4 5
comments
print report bad tab
1 comment total.
0 reply
Quinetime 15 Dec 28, 2009 11:08 PM

This is pretty good. I'm glad I've found a version that includes the guitar parts played over ther verse

guest
You may want to rate the tab now too:
select rating
Wanna post a correction for this tab? Suggest correction