Oops, an error
Loading. Please wait.
We have an official Sultans Of Swing tab made by UG professional guitarists. Check out the tab »
×

Sultans Of Swing solo tab

version 5
version 5

Solo

  • This is how it is in the song. Standard tuning. No capo.
  • This is both of the solos. i dont know if it is co... Show more
313 views 12 this week
no commentswrite comment
1 2 3 4 5
3 more votes to show rating
add to favorites
×
Save as Personal and add changes to this tab that will be seen only by you. Learn more ›
×
You can save this tab as Personal to edit and correct it or add notes. All changes will be seen only by you. Learn more »
launch autoscroll
font size
0
reset
how to read this tab
guitar tuner
backing track
0:00
0:00
edit
Autoscroll
slow
fast
+/-
esc
set tempo
stop
About this tab version
This is both of the solos. i dont know if it is correct all the way i tabed it out by ear. the whole song here https://www.youtube.com/watch?v=Il8ZC3O64AU 1st solo starts at 2:45. Was this info helpful? Yes No
[1st solo]
e|-------------------------------------|----------9-13br-10-------------------------------------|
B|-------------------------------------|--------10---------10-----10-13-11h13p11-10-11-x-x-9-10-|
G|-12b-12b-12b-12b-12b-10h12p10-9h10p9-|------10-------------10--------------------0------------|
D|-------------------------------------|----11-----------------12-------------------------------|
A|-------------------------------------|--12----------------------------------------------------|
E|-------------------------------------|12------------------------------------------------------|

e|-------------13------------|-11/13-12----------------|---------------------|---13-10--10------------|
B|------13-------13----------|---------13--------13-13-|-13bh-r13-11-13b-13b-|-10-----10--13bh-x------|
G|-12bh---12bh-----r12-10-10-|-----------12-14-12------|---------------------|------------------12-10-|
D|---------------------------|-------------------------|---------------------|------------------------|
A|---------------------------|-------------------------|---------------------|------------------------|
E|---------------------------|-------------------------|---------------------|------------------------|

e|----------------------------------------------------|
B|---3-6-3---5-6-5-6-6/8\3--3-6-3-----------8---------|
G|--3-------5--------------3-------5-7-5-7bh-r7-5-7-7-|
D|-3-------5--------------3-------5-------------------|
A|----------------------------------------------------|
E|----------------------------------------------------|

 [2nd solo]
e|------------------------------------------------------------------------|
B|------------------------------------------------------------------------|
G|--12b---12-10-12-10------x-12b---12-9h12p9-7h9p7-5h7p5------------------|
D|--------------------12-------------------------------------5h7p5--------|
A|-----------------------------------------------------------------5h7p5--|
E|------------------------------------------------------------------------|

e|-------------------------------------8--------8--------8---------8---------8------------|
B|----x-10p8----8------------8h10p8------10p8-----10p8------10p8------10p8------10p8------|
G|--x--------10---10-7---7/9--------9---------9--------9---------9---------9--------------|
D|----------------------------------------------------------------------------------------|
A|----------------------------------------------------------------------------------------|
E|----------------------------------------------------------------------------------------|


e|---------10----------------------------------------------------------------------12-----10--------|
B|------10----13p10----10---------------------10-----------------10-------11---11b----11b-----------|
G|--12b-------------12----12p10------------10----12------------x--------x---------------------------|
D|------------------------------12---10h12-------------------x--------x-----------------------------|
A|--------------------------------------------------------------------------------------------------|
E|--------------------------------------------------------------------------------------------------|


e|-----10-13p----10-13p10----10-13p10----10-13p10----------------|
B|--10--------10----------10----------10-------------------------|
G|---------------------------------------------------------------|
D|---------------------------------------------------------------|
A|---------------------------------------------------------------|
E|---------------------------------------------------------------|


e|-----10-13p----10-13p10----10-13p10----10-13-------------------|
B|--11--------11----------11----------11-------------------------|
G|---------------------------------------------------------------|
D|---------------------------------------------------------------|
A|---------------------------------------------------------------|
E|---------------------------------------------------------------|



e|-----12-15p12----12-15p12----12-15p12----12-15p12--------------|
B|--13----------13----------13----------13-----------------------|
G|---------------------------------------------------------------|
D|---------------------------------------------------------------|
A|---------------------------------------------------------------|
E|---------------------------------------------------------------|


e|-----10-13p----10-13p10----10-13p10----10-13p10----------------|
B|--10--------10----------10----------10-------------------------|
G|---------------------------------------------------------------|
D|---------------------------------------------------------------|
A|---------------------------------------------------------------|
E|---------------------------------------------------------------|


e|-----10-13p----10-13p10----10-13p10----10-13-------------------|
B|--11--------11----------11----------11-------------------------|
G|---------------------------------------------------------------|
D|---------------------------------------------------------------|
A|---------------------------------------------------------------|
E|---------------------------------------------------------------|


e|-----12-15p12----12-15p12----12-15p12----12-15p12--------------|
B|--13----------13----------13----------13-----------------------|
G|---------------------------------------------------------------|
D|---------------------------------------------------------------|
A|---------------------------------------------------------------|
E|---------------------------------------------------------------|


e|--15b---15b-13-15-13-----13----15b-15-12h15p12---------------------------------|
B|---------------------15-----13-----------------13h15p13---10h13p10-------------|
G|-------------------------------------------------------------------9h12p9------|
D|--------------------------------------------------------------------------10---|
A|-------------------------------------------------------------------------------|
E|-------------------------------------------------------------------------------|



************************************

| br  Bend release
| x   Dead note
| h   Hammer-on
| p   Pull-off
| b   Bend
| /   Slide up
| r   Release
| \   Slide down
| bh  

************************************

            
            
Suggest correction
Creating personal tab
Creating personal tab
You can edit any tab online and save it as your Personal.

You can edit, replace or remove any tab part or add personal notes – all changes will be seen only by you.

Personal tabs can be accessed anytime from any device, even offline.
Learn more »
Give kudos to tab author, rate the tab!
1 2 3 4 5
comments
print report bad tab
guest
You may want to rate the tab now too:
select rating
Wanna post a correction for this tab? Suggest correction