Oops, an error
Loading. Please wait.

You And Your Friend bass

version 1
version 1

Whole song

Interactive

1,406 views 12 this week
no commentswrite comment
1 2 3 4 5
2 more votes to show rating
add to favorites
×
Save as Personal and add changes to this tab that will be seen only by you. Learn more ›
×
You can save this tab as Personal to edit and correct it or add notes. All changes will be seen only by you. Learn more »
launch autoscroll
font size
0
reset
guitar tuner
backing track
0:00
0:00
edit
Autoscroll
slow
fast
+/-
esc
set tempo
stop
Author
Difficulty
Dire Straits - You and your friend (Live version)
Tabbed by : Bruno Frenchy         


Tuning: E A D G
Tempo: 83 bpm

Intro: 
00:07      00:13    00:18             00:24  
G|--------|--------|--------|--------|------|-
D|--------|--------|--------|--------|------|-
A|--------|---3~~--|--------|--------|------|-
E|-1-1-3~-|--------|-1-1-3~-|--------|-1-1--|-

+ Instrumental opening: 00:25
G|-------|-------|-------|-----0~|-----0~-|--------|--------|--------||--------|-
D|-------|-------|-----3~|-------|--------|--------|--------|--------||--------|-
A|-----5-|-----5-|-5-1---|-1-2---|-5-3~---|------5-|------5-|------5-||--------|- 
E|-3~----|-3~----|-------|-------|--------|-1-3~---|-4r-3---|-1-3~---||-6-5-.--|-

G|-------|-------|-------|-----0~|-----0~-|--------|--------|--------||--------|-
D|-------|-------|-----3~|-------|--------|--------|--------|--------||---5----|-
A|-----5-|-----5-|-5-1---|-1-2---|-5-3~---|------5-|------5-|------5-||-5---5--|- 
E|-3~----|-3~----|-------|-------|--------|-1-3~---|-4r-3---|-1-3~---||-------4|-


Verse1: 01:11
G|-------|-------|-------|-----0~|-----0~-|--------|--------|--------||--------|-
D|-------|-------|-----3~|-------|--------|--------|--------|--------||--------|-
A|-----5-|-----5-|-5-1---|-1-2---|-5-3~---|------5-|------5-|------5-||--------|- 
E|-3~----|-3~----|-------|-------|--------|-1-3~---|-4r-3---|-1-3~---||-6-5-.--|-
Will you and your friend come around… 
                             Are you and your friend gonna get on down…
G|-------|-------|-------|-----0~|-----0~-|--------|--------|--------||--------|-
D|-------|-------|-----3~|-------|--------|--------|--------|--------||--------|-
A|-----5-|-----5-|-5-1---|-1-2---|-5-3~---|------5-|------5-|------5-||-------3|- 
E|-3~----|-3~----|-------|-------|--------|-1-3~---|-4r-3---|-1-3~---||-4-3-1--|-
Will you and your friend come around…
                             Or will you and your friend gonna let me down…


Bridge1: 01:56
G|--------|--------|--------|--------|--------|-
D|--------|--------|--------|--------|--------|-
A|------5-|-------3|------5-|-------3|------5-|-
E|-1-3----|-4-3-1--|-1-3----|-4-3-1--|-1-3----|-
If you talk to one another… I am hungry man…  
                                   Let me know one way or the other…
02:15                        02:21
G|--------|--------|--------||--------|-
D|--------|--------|--------||--------|-
A|-------.|----3~~~|--------||--------|-
E|-4-3-1--|-1------|--------||-1-1--.-|-
So I can make my plans…



Verse2: 02:23
G|-------|-------|-------|-----0~|-----0~-|--------|--------|--------||--------|-
D|-------|-------|-----3~|-------|--------|--------|--------|--------||--------|-
A|-----5-|-----5-|-5-1---|-1-2---|-5-3~---|------5-|------5-|------5-||--------|- 
E|-3~----|-3~----|-------|-------|--------|-1-3~---|-4r-3---|-1-3~---||-6-5-.--|-
Will you and your friend come around…
                           Or are you and your friend gonna get on down…

G|-------|-------|-------|-----0~|-----0~-|--------|--------|--------||--------|-
D|-------|-------|-----3~|-------|--------|--------|--------|--------||--------|-
A|-----5-|-----5-|-5-1---|-1-2---|-5-3~---|------5-|------5-|------5-||-------3|- 
E|-3~----|-3~----|-------|-------|--------|-1-3~---|-4r-3---|-1-3~---||-4-3-1--|-
Will you and your friend come around…
                           Or are you and your friend gonna get on down…


Bridge2:03:07 
G|--------|--------|--------|--------|--------|-
D|--------|--------|--------|--------|--------|-
A|------5-|-------3|------5-|-------3|------5-|-
E|-1/3----|-4-3-1--|-1/3----|-4-3-1--|-1/3----|-
I relive the situation…
                                 Still see it in my mind…

G|--------|--------|  |-0------|--------|-----------|-
D|--------|--------|  |--------|--------|-----------|-
A|--------|---3~~--|  |------3-|-5--3~~-|-5-3-1-3--3|-
E|-4-3-1-1|--------|  |--------|--------|-----------|-
You got my imagination…
Working over time…


Solo:                         03:47
G|--------|--------|--------||--------|-
D|--------|--------|--------||--------|-
A|-----    guitar     ------||--------|-
E|--------|--------|--------||-1-1--.-|-

G|-------|-------|-------|-----0~|-----0~-|--------|--------|--------||--------|-
D|-------|-------|-----3~|-------|--------|--------|--------|--------||--------|-
A|-----5-|-----5-|-5-1---|-1-2---|-5-3~---|------5-|------5-|------5-||--------|- 
E|-3~----|-33~---|-------|-------|--------|-1-3~---|-4r-3---|-1-3~---||-6-5-.--|-

G|-------|-------|-------|-----0~|-----0~-|--------|--------|--------||--------|-
D|-------|-------|-----3~|-------|--------|--------|--------|--------||---5----|-
A|-----5-|-----5-|-5-1---|-1-2---|-5-3~---|------5-|------5-|------5-||-5---5--|- 
E|-3~----|-3~----|-------|-------|--------|-1-3~---|-4r-3---|-1-3~---||-------4|-

                                                             (Repeat til fade out)
G|-------|-------|-
D|-------|-------|-
A|-----5-|-----5-|- fade out  
E|-3~----|-3~----|-

End: 06:48 (**Live version)


Tablature Legend ----------------  
| S  slap 
| P  pop
| r  bend and release 
| . leading to next note 
| x  mute note 
| /  slide up 
| \  slide down 
| h  hammer-on 
| p  pull-off 
| g  grace note 
| ~  vibrato 
| ^  brush up









            
            
Suggest correction
Creating personal tab
Creating personal tab
You can edit any tab online and save it as your Personal.

You can edit, replace or remove any tab part or add personal notes – all changes will be seen only by you.

Personal tabs can be accessed anytime from any device, even offline.
Learn more »
Give kudos to tab author, rate the tab!
1 2 3 4 5
comments
print report bad tab
guest
You may want to rate the tab now too:
select rating
Wanna post a correction for this tab? Suggest correction