Oops, an error
Loading. Please wait.

Insomnia tab

7,559 views 3 this week
3 commentsread comments
1 2 3 4 5
x 5
add to favorites
×
Save as Personal and add changes to this tab that will be seen only by you. Learn more ›
×
You can save this tab as Personal to edit and correct it or add notes. All changes will be seen only by you. Learn more »
launch autoscroll
font size
0
reset
how to read this tab
guitar tuner
edit
Autoscroll
slow
fast
+/-
esc
set tempo
stop
Insomnia
By: DirtyHeads

note.  this is not an exact tab.  its just a guess but i think its pretty close.



Intro/ Verses
E|-------------------------|------------------------|
B|-------------------------|------------------------|
G|-------------------------|------------------------|
D|-------------12----------|------------12----------|
A|----11-12-14----14-12-11-|---11-12-14----14-12-11-|
E|-12----------------------|12----------------------|

E|-----------------------|-----------------------|
B|-----------------------|-----------------------|
G|-----------------------|-----------------------|
D|------------10---------|------------10---------|
A|----9-10-12----12-10-9-|----9-10-12----12-10-9-|
E|-10--------------------|-10--------------------|



Chords for chorus

Em     D      a     Em

0      2      0     0
0      3      2     0
1      2      2     1
2      0      2     2
2      x      0     2
0      x      x     0


            
            
Suggest correction
Creating personal tab
Creating personal tab
You can edit any tab online and save it as your Personal.

You can edit, replace or remove any tab part or add personal notes – all changes will be seen only by you.

Personal tabs can be accessed anytime from any device, even offline.
Learn more »
comments
print report bad tab
3 comments total.
0 reply
Sick_of_rtards 10 Sep 19, 2009 01:38 AM

Here is some correction to the tab this is 100% correct, no doubts.

------------------------\--------------------\-----------------------
-----------------------\---------------------\----------------------------------------------\---------------------\-------------------------------12-------------\--------10------------\-12-10-9-----------------11-14--14-12-11----\----9-12---12-10-9-----\----------12-10-9-----12----------------12--\--10---------------10--\-----------------12-10

its a little sloppy, but they are separated into A B and C respectively. the way it goes is Ax2, B, pause, Ax2, B, C.......... and variations off that regarding the pause and the C section, you should be able to listen for those. Good Luck!! Respect to all the Dirty Heads out there (double if you knew them back on Sublimearchive with antelope!! good times)

+1 reply
Sick_of_rtards 10 Sep 19, 2009 01:53 AM

|--------------------------|------------------------|------------------------|
|--------------------------|------------------------|------------------------|
|--------------------------|------------------------|------------------------|
|-----------12-------------|----------10------------|--12-10-9---------------|
|-----11-14----14-12-11----|-----9-12----12-10-9----|----------12-10-9-------|
|--12-------------------12-|--10-----------------10-|------------------12-10-|

0 reply
Sick_of_rtards 10 Sep 19, 2009 01:54 AM

There, now you can understand it, enjoy.

guest
Wanna post a correction for this tab? Suggest correction