Oops, an error
Loading. Please wait.

Runnin Wild tab

version 2
version 2

Whole song

1,590 views 1 this week
9 commentsread comments
1 2 3 4 5
2 more votes to show rating
add to favorites
×
Save as Personal and add changes to this tab that will be seen only by you. Learn more ›
×
You can save this tab as Personal to edit and correct it or add notes. All changes will be seen only by you. Learn more »
launch autoscroll
font size
0
reset
how to read this tab
guitar tuner
edit
Autoscroll
slow
fast
+/-
esc
set tempo
stop
Author
Hi again I tabbed this song before but I found a lot of mistakes so I'm doing it again 
it is much better :-)
Tune your guitar down one step, DGCFAD.


               Main Riff
                                PM             PM
               E         S S E  S  E.   S S E  S  S
D||-------||-----------------------------------------|
A||-------||-----------------------------------------|
F||-------||*------------2---2----------2---2--------|
C||-------||*------------2---2----------2---2--------|
G||-------||-------------0---0----------0---0--------|
D||-------||---3b---------------0--3b----------0--3b-|


            PM PM     PM
  E  S S E  S  S  S S S  S S E.   5x
----------------------------------||
----------------------------------||
-----2---2--------5-5----7---5---*||
-----2---2--------5-5----7---5---*||
-----0---0--0--0------0----0------||
--L-------------------------------||


   Verses
              PM PM PM PM PM      PM PM PM PM PM
   E          S  S  S  S  S  E.   S  S  S  S  S  S
----------------------------------------------------|
----------------------------------------------------|
*---------------------------------------------------|
*---------------------------------------------------|
--------------0--0--0--0----------0--0--0--0--------|
---3b---------------------0--3b---------------0--3b-|


     PM PM PM PM PM PM     PM
  E  S  S  S  S  S  S  S S S  S S E.   3x
---------------------------------------||
---------------------------------------||
-----------------------5-5----7---5---*||
-----------------------5-5----7---5---*||
-----0--0--0--0--0--0------0----0------||
--L------------------------------------||

             PM PM PM PM PM      PM PM PM PM PM
  E          S  S  S  S  S  E.   S  S  S  S  S  S
---------------------------------------------------|
---------------------------------------------------|
---------------------------------------------------|
---------------------------------------------------|
-------------0--0--0--0----------0--0--0--0--------|
--3b---------------------0--3b---------------0--3b-|


                                  Chorus
     PM PM PM PM
  E  S  S  S  S  S E.  E.  E.     H        H
-------------------------------|-----------3--------|
-------------------------------|-----------3--------|
-----------------x-5---6---7---|-----------0--------|
-----------------x-5---6---7---|--3--------0--------|
-----0--0--0--0--x-3---4---5---|--3--------x--------|
--L----------------------------|--1--------3--------|


             PM             PM
  E   S S E  S  E.   S S E  S  S     H        H
----------------------------------|-----------3--------|
----------------------------------|-----------3--------|
------2---2----------2---2--------|-----------0--------|
------2---2----------2---2--------|--3--------0--------|
------0---0----------0---0--------|--3--------x--------|
--3b---------0--3b----------0--3b-|--1--------3--------|


             PM             PM
  E   S S E  S  E.   S S E  S  S      W
----------------------------------|--------------------|
----------------------------------|--------------------|
------2---2----------2---2--------|--------------------|
------2---2----------2---2--------|--10----------------|
------0---0----------0---0--------|--10----------------|
--3b---------0--3b----------0--3b-|---8----------------|


   H        E   S  S   S  S E     H        H
-------------------------------|-----------3--------|
---------------12-13p-12-------|-----------3--------|
-------------------------12-L--|-----------0--------|
--12--------L---------------L--|--3--------0--------|
--12--------L---------------L--|--3--------x--------|
--10--------L---------------L--|--1--------3--------|


             PM
  E   S S E  S  S H           W                Q
---------------------------|------------------------|
---------------------------|------------------------|
------2---2-----2----------|------------------------|
------2---2-----2----------|------------------------|
------0---0-----0----------|------------------------|
--3b---------3-------------|------------------------|

Then Verse 2 and Chorus 2
Then there's the break:
                                                      Hey!
                                       PM PM PM PM
                                 |--3--|  |--3--|
  Q    S Q    S Q    S Q    S    E  E  E  E  E  E  E  Q.
------------------------------|------------------------------|
------------------------------|------------------------------|
---------5----L--------7----L-|--2-----------------2---------|
--3----L-5----L-5----L-7----L-|--2-----------------2---------|
--3----L-3----L-5----L-5----L-|--0-----0--3--0-----0---------|
--1----L--------3----L--------|-----------------3------------|


                                                      Hey!
        PM PM PM PM                    PM PM PM PM
  |--3--|  |--3--|               |--3--|  |--3--|
  E  E  E  E  E  E  Q    Q       E  E  E  E  E  E  E  Q.
------------------------------|------------------------------|
------------------------------|------------------------------|
--2-----------------5----7----|--2-----------------2---------|
--2-----------------5----7----|--2-----------------2---------|
--0-----0--3--0-----3----5----|--0-----0--3--0-----0---------|
-----------------3------------|-----------------3------------|


                                                      Hey!
                                       PM PM PM PM
                                 |--3--|  |--3--|
  Q    S Q    S Q    S Q    S    E  E  E  E  E  E  E  Q.
------------------------------|------------------------------|
------------------------------|------------------------------|
---------5----L--------7----L-|--2-----------------2---------|
--3----L-5----L-5----L-7----L-|--2-----------------2---------|
--3----L-3----L-5----L-5----L-|--0-----0--3--0-----0---------|
--1----L--------3----L--------|-----------------3------------|


                                                      Hey!
        PM PM PM PM                    PM PM PM PM
  |--3--|  |--3--|               |--3--|  |--3--|
  E  E  E  E  E  E  Q    Q       E  E  E  E  E  E  E  Q.
------------------------------|------------------------------|
------------------------------|------------------------------|
--2-----------------5----7----|--2-----------------2---------|
--2-----------------5----7----|--2-----------------2---------|
--0-----0--3--0-----3----5----|--0-----0--3--0-----0---------|
-----------------3------------|-----------------3------------|


                                   PM PM PM PM PM PM PM PM PM PM PM
  Q    S Q    S Q    S Q    S    S S  S  S  S  S  S  S  S  S  S  S  S S S S
------------------------------|---------------------------------------------|
------------------------------|---------------------------------------------|
---------5----L--------7----L-|---------------------------------------------|
--3----L-5----L-5----L-7----L-|--5-5--5--5--5--5--5--5--5--5--5--5--5-5-5-5-|
--3----L-3----L-5----L-5----L-|--5-5--5--5--5--5--5--5--5--5--5--5--5-5-5-5-|
--1----L--------3----L--------|--3-3--3--3--3--3--3--3--3--3--3--3--3-3-3-3-|


  S S S E  H        E.
------------------------|
------------------------|
------------------------|
--5-5-5-----------------|
--5-5-5-----------------|
--3-3-3-----------------|

Then there's the solo wich I haven't find out yet.
Then just go back to chorus and Break and that's it .

This is what Johnny does before the 2nd verse:
   S  S  S  S  S  S  S  S  H
-----17----19----20----17------------||
--17----17----17----17----20b--------||
-------------------------------------||
-------------------------------------||
-------------------------------------||
-------------------------------------||

Duration Legend
---------------
W - whole
H - half
Q - quarter
E - 8th
S - 16th
T - 32nd
X - 64th
. - note dotted
|-n-|  - n-tuplets


Tablature Legend
----------------
L - tied note
x - dead note
g - grace note
(n) - ghost note
> - accentuded note
NH - natural harmonic
AH - artificial harmonic
TH - tapped harmonic
SH - semi harmonic
PH - pitch harmonic
h - hammer on
p - pull off
b - bend
br - bendRelease
pb - preBend
pbr - preBendRelease
brb - bendReleaseBend
\n/ - tremolo bar dip
\n - tremolo bar dive
-/n - tremolo bar Release up
/n\ - tremolo bar inverted dip
/n - tremolo bar return
-\n - tremolo bar Release down
S - shift slide
s - legato slide
/ -  slide into from below or out of upwards
\ -  slide into from above or out of downwards
~ - vibrato
W - wide vibrato
tr - trill
TP - tremolo picking
T - tapping
S - slap
P - pop
< - fade in
^ - brush up
v - brush down

            
            
Suggest correction
Creating personal tab
Creating personal tab
You can edit any tab online and save it as your Personal.

You can edit, replace or remove any tab part or add personal notes – all changes will be seen only by you.

Personal tabs can be accessed anytime from any device, even offline.
Learn more »
Give kudos to tab author, rate the tab!
1 2 3 4 5
comments
print report bad tab
9 comments total. Showing first comments.
0 reply
Ratt n' Roll 205 Jan 06, 2009 08:43 AM

Nice, my friend turned me onto this band and they kick ass sleaze glam is awesome. could you tab their song Midnight Ride. Anyway, 5 stars

0 reply
alex-1025 168 Jan 21, 2009 02:49 PM

thanx yeah i got the whole song i just gota put it in a tab and il put it up, just without the solo but everything else ;)

0 reply
Ratt n' Roll 205 Jan 22, 2009 05:07 AM

Thanks, do u also happen to have the song vendetta-that's my favorite.

guest
You may want to rate the tab now too:
select rating
Wanna post a correction for this tab? Suggest correction