Oops, an error
Loading. Please wait.

1 2 Conductor tab

version 2
version 2

Whole song

  • An adrenaline filled epic song by Disciple. Very fun to play.
19 views 1 this week
no commentswrite comment
1 2 3 4 5
3 more votes to show rating
add to favorites
×
Save as Personal and add changes to this tab that will be seen only by you. Learn more ›
×
You can save this tab as Personal to edit and correct it or add notes. All changes will be seen only by you. Learn more »
launch autoscroll
font size
0
reset
how to read this tab
guitar tuner
edit
Autoscroll
slow
fast
+/-
esc
set tempo
stop
About this tab version
An adrenaline filled epic song by Disciple. Very fun to play. Was this info helpful? Yes No
[Intro]
                                                       (2x)
e|-----------------------------------------------------|
B|-----------------------------------------------------|
G|-----------------------------------------------------|
D|-----------------------------------------------------|
A|-3-3-3-4\3--3-3-3-3-4\3--3-3-3-3-4\3--3-3-3-3-4\3--3-|
E|-1-1-1-2\1--1-1-1-1-2\1--1-1-1-1-2\1--1-1-1-1-2\1--1-|

[Verse 1]
e|--------------------------------------------|
B|--------------------------------------------|
G|--------------------------------------------|
D|--------------------------------------------|
A|--------------------------------------------|
E|-1-1-1-1h2--1-1-1-1h4-2--1-1-1-1h2--1-1-1-4-|
                                                       (4x)
e|-----------------------------------------------------|
B|-----------------------------------------------------|
G|-----------------------------------------------------|
D|-----------------------------------------------------|
A|-3-3-3-4\3--3-3-3-3-4\3--3-3-3-3-4\3--3-3-3-3-4\3--3-|
E|-1-1-1-2\1--1-1-1-1-2\1--1-1-1-1-2\1--1-1-1-1-2\1--1-|

e|-----------------------------------------------------|
B|-----------------------------------------------------|
G|-----------------------------------------------------|
D|-----------------------------------------------------|
A|-3-3-3-4\3--3-3-3-3-4\3--3-3-3-3-4\3--3-3-3-3-4\3--3-|
E|-1-1-1-2\1--1-1-1-1-2\1--1-1-1-1-2\1--1-1-1-1-2\1--1-|

[Pre-chorus]
e|---------------------------|----------------------------------|
B|---------------------------|----------------------------------|
G|---------------------------|----------------------------------|
D|-------------------------3-|----------------------------------|
A|-2---2---3-3-3-3-2---2---1-|-2---2---3-3-3-3-2---3--3-3-3-3-3-|
E|---1---1-1-1-1-1---1---1---|---1---1-1-1-1-1---1-1--1-1-1-1-1-|

[Chorus]
e|--------------------------------------------------|
B|--------------------------------------------------|
G|-8-10-11--11------------------------------------x-|
D|-8-10-11-----11-11-11--11-11--11-11--11-11-11-x-x-|
A|-6-8--9---------9--9---9--9---9--9---9--9--9--x-x-|
E|--------------------------------------------------|

e|--------------------------------------------|
B|--------------------------------------------|
G|-8-10-11--------10--------------------------|
D|-8-10-11--10-8--10--10-10-10-10-10-10-10-10-|
A|-6-8--9---8--6--8---8--8--8--8--8--8--8--8--|
E|--------------------------------------------|

e|--------------------------------------------------|
B|--------------------------------------------------|
G|-8-10-11--11------------------------------------x-|
D|-8-10-11-----11-11-11--11-11--11-11--11-11-11-x-x-|
A|-6-8--9---------9--9---9--9---9--9---9--9--9--x-x-|
E|--------------------------------------------------|

e|--------------------------------|
B|--------------------------------|
G|-8-10-11--------10--------------|
D|-8-10-11--10-8--10--------------|
A|-6-8--9---8--6--8-----2---2---2-|
E|--------------------1---1---1---|
                                                                   (2x)
e|-----------------------------------------------------------------|
B|-----------------------------------------------------------------|
G|-----------------------------------------------------------------|
D|-----------------------------------------------------------------|
A|-3-3-3-3-4-3-3-3-3-3-3-3-4-3-3-3-3-3-3-3-4-3-3-3-3-3-3-3-4-3-3-3-|
E|-1-1-1-1-2-1-1-1-1-1-1-1-2-1-1-1-1-1-1-1-2-1-1-1-1-1-1-1-2-1-1-1-|

[Verse 2]
e|--------------------------------------------|
B|--------------------------------------------|
G|--------------------------------------------|
D|--------------------------------------------|
A|--------------------------------------------|
E|-1-1-1-1h2--1-1-1-1h4-2--1-1-1-1h2--1-1-1-4-|
                                                       (2x)
e|-----------------------------------------------------|
B|-----------------------------------------------------|
G|-----------------------------------------------------|
D|-----------------------------------------------------|
A|-3-3-3-4\3--3-3-3-3-4\3--3-3-3-3-4\3--3-3-3-3-4\3--3-|
E|-1-1-1-2\1--1-1-1-1-2\1--1-1-1-1-2\1--1-1-1-1-2\1--1-|

e|-----------------------------------------------------|
B|-----------------------------------------------------|
G|-----------------------------------------------------|
D|-----------------------------------------------------|
A|-3-3-3-4\3--3-3-3-3-4\3--3-3-3-3-4\3--3-3-3-3-4\3--3-|
E|-1-1-1-2\1--1-1-1-1-2\1--1-1-1-1-2\1--1-1-1-1-2\1--1-|

[Pre-chorus]
e|---------------------------|----------------------------------|
B|---------------------------|----------------------------------|
G|---------------------------|----------------------------------|
D|-------------------------3-|----------------------------------|
A|-2---2---3-3-3-3-2---2---1-|-2---2---3-3-3-3-2---3--3-3-3-3-3-|
E|---1---1-1-1-1-1---1---1---|---1---1-1-1-1-1---1-1--1-1-1-1-1-|

[Chorus]
e|--------------------------------------------------|
B|--------------------------------------------------|
G|-8-10-11--11------------------------------------x-|
D|-8-10-11-----11-11-11--11-11--11-11--11-11-11-x-x-|
A|-6-8--9---------9--9---9--9---9--9---9--9--9--x-x-|
E|--------------------------------------------------|

e|--------------------------------------------|
B|--------------------------------------------|
G|-8-10-11--------10--------------------------|
D|-8-10-11--10-8--10--10-10-10-10-10-10-10-10-|
A|-6-8--9---8--6--8---8--8--8--8--8--8--8--8--|
E|--------------------------------------------|

e|--------------------------------------------------|
B|--------------------------------------------------|
G|-8-10-11--11------------------------------------x-|
D|-8-10-11-----11-11-11--11-11--11-11--11-11-11-x-x-|
A|-6-8--9---------9--9---9--9---9--9---9--9--9--x-x-|
E|--------------------------------------------------|

e|--------------------------------|
B|--------------------------------|
G|-8-10-11--------10--------------|
D|-8-10-11--10-8--10--------------|
A|-6-8--9---8--6--8-----2---2---2-|
E|--------------------1---1---1---|

e|----------|
B|----------|
G|-13-15-16-|
D|----------|
A|-11-13-14-|
E|----------|

[Bridge]
e|-------------------------|
B|-------------------------|
G|-------------------------|
D|-------------------------|
A|-3-3-4-3-3-4-3-3-4-3-3-4-|
E|-1-1-2-1-1-2-1-1-2-1-1-2-|

                                                                   (2x)
e|-----------------------------------------------------------------|
B|-----------------------------------------------------------------|
G|-----------------------------------------------------------------|
D|-----------------------------------------------------------------|
A|-3-3-3-3-4-3-3-3-3-3-3-3-4-3-3-3-3-3-3-3-4-3-3-3-3-3-3-3-4-3-3-3-|
E|-1-1-1-1-2-1-1-1-1-1-1-1-2-1-1-1-1-1-1-1-2-1-1-1-1-1-1-1-2-1-1-1-|

[Pre-chorus]
e|---------------------------|----------------------------------|
B|---------------------------|----------------------------------|
G|---------------------------|----------------------------------|
D|-------------------------3-|----------------------------------|
A|-2---2---3-3-3-3-2---2---1-|-2---2---3-3-3-3-2---3--3-3-3-3-3-|
E|---1---1-1-1-1-1---1---1---|---1---1-1-1-1-1---1-1--1-1-1-1-1-|

[Chorus]
e|--------------------------------------------------|
B|--------------------------------------------------|
G|-8-10-11--11------------------------------------x-|
D|-8-10-11-----11-11-11--11-11--11-11--11-11-11-x-x-|
A|-6-8--9---------9--9---9--9---9--9---9--9--9--x-x-|
E|--------------------------------------------------|

e|--------------------------------------------|
B|--------------------------------------------|
G|-8-10-11--------10--------------------------|
D|-8-10-11--10-8--10--10-10-10-10-10-10-10-10-|
A|-6-8--9---8--6--8---8--8--8--8--8--8--8--8--|
E|--------------------------------------------|

e|--------------------------------------------------|
B|--------------------------------------------------|
G|-8-10-11--11------------------------------------x-|
D|-8-10-11-----11-11-11--11-11--11-11--11-11-11-x-x-|
A|-6-8--9---------9--9---9--9---9--9---9--9--9--x-x-|
E|--------------------------------------------------|

e|--------------------------------|
B|--------------------------------|
G|-8-10-11--------10--------------|
D|-8-10-11--10-8--10--------------|
A|-6-8--9---8--6--8-----2---2---2-|
E|--------------------1---1---1---|

e|---------------------------------------------------------|
B|---------------------------------------------------------|
G|---------------------------------------------------------|
D|---------------------------------------------------------|
A|-3-3-3-3-4-3-3-3---2---2---2-3-3-3-3-4-3-3-3---2---2---2-|
E|-1-1-1-1-2-1-1-1-1---1---1---1-1-1-1-2-1-1-1-1---1---1---|

e|---------------------------------------------------------------------------------|
B|---------------------------------------------------------------------------------|
G|---------------------------------------------------------------------------------|
D|---------------------------------------------------------------------------------|
A|-3-3-3-3-4-3-3-3-3-3-3-3-4-3-3-3-3-3-3-3-4-3-3-3-3-3-3-3-4-3-3-3-3-3-3-3-4-3-3-3-|
E|-1-1-1-1-2-1-1-1-1-1-1-1-2-1-1-1-1-1-1-1-2-1-1-1-1-1-1-1-2-1-1-1-1-1-1-1-2-1-1-1-|

[Outro]                                                     
e|----------------------------------------------------|
B|----------------------------------------------------|
G|----------------------------------------------------|
D|----------------------------------------------------|
A|-3-3-3-4\3--3-3-3-3-4\3--3-3-3-3-4\3--3-3-3-3-4\3-3-|
E|-1-1-1-2\1--1-1-1-1-2\1--1-1-1-1-2\1--1-1-1-1-2\1-1-|

e|--------------------------------------------------|
B|--------------------------------------------------|
G|--------------------------------------------------|
D|--------------------------------------------------|
A|-3-3-3-4\3--3-3-3-3-4\3--3-3-3-3-4\3--3-3-3-3-4-3-|
E|-1-1-1-2\1--1-1-1-1-2\1--1-1-1-1-2\1--1-1-1-1-2-1-|


************************************

| x   Dead note
| h   Hammer-on
| \   Slide down

************************************

            
            
Suggest correction
Creating personal tab
Creating personal tab
You can edit any tab online and save it as your Personal.

You can edit, replace or remove any tab part or add personal notes – all changes will be seen only by you.

Personal tabs can be accessed anytime from any device, even offline.
Learn more »
Give kudos to tab author, rate the tab!
1 2 3 4 5
comments
print report bad tab
guest
You may want to rate the tab now too:
select rating
Wanna post a correction for this tab? Suggest correction