Oops, an error
Loading. Please wait.

My Hell tab

version 2
version 2

Whole song

Interactive

1,869 views 1 this week
no commentswrite comment
1 2 3 4 5
2 more votes to show rating
add to favorites
×
Save as Personal and add changes to this tab that will be seen only by you. Learn more ›
×
You can save this tab as Personal to edit and correct it or add notes. All changes will be seen only by you. Learn more »
launch autoscroll
font size
0
reset
how to read this tab
guitar tuner
edit
Autoscroll
slow
fast
+/-
esc
set tempo
stop
Tabbed by - Matt
Contact   - spyker8@hotmail.com

I everything by ear except the intro and Verse 1 so it may not be correct.


Intro -

E-------------11-------11-------13----------13-----------13----|
B----------11---11-------11--------11----------11----------11--|
G--12h13---------13--------------------13---------13-----------|
D--------------------------------------------------------------|
A--------------------------------------------------------------|
E--------------------------------------------------------------|

E-16---------16-------16------15------15----15---------------|
B---13---------13--------13-----13------13----13-------------|
G------13---------13--------------13------13-----------------|
D------------------------------------------------------------|
A------------------------------------------------------------|
E------------------------------------------------------------|

E-------------11-------11-------13----------13-----------13----|
B----------11---11-------11--------11----------11----------11--|
G--12h13---------13--------------------13---------13-----------|
D--------------------------------------------------------------|
A--------------------------------------------------------------|
E--------------------------------------------------------------|

E-16---------16-------16------15------15----15^16------------|
B---13---------13--------13-----13------13-------------------|
G------13---------13-----------------------------------------|
D------------------------------------------------------------|
A------------------------------------------------------------|
E------------------------------------------------------------|

15^16 = bend on the 15th fret to make it sound like the 16th


Verse - Palm mute

E--------------------------------------------|
B------5-8------8---10--------10------10-----|
G--6-8-----8--6---6---10--8----10--8-----8---|
D--------------------------------------------|
A--------------------------------------------|
E--------------------------------------------|

E-----------------------------------------------------|
B-----13---------13-------13----12------12------------|
G-------13--10----13--10----10---13--10---13--10------|
D-----------------------------------------------------|
A-----------------------------------------------------|
E-----------------------------------------------------|

Had to split the riff into 2 parts cause the thing I'm writing in wouldn't let me 
put it altogether


Chorus -

Strum each chord 12 times

E---------------------------------------------------------------------------|
B---------------------------------------------------------------------------|
G---5-----------------------------------------------------------------------|
D---5------6----------------------------------------------------------------|
A---3------6----------------------------------------------------------------|
E----------4----------------------------------------------------------------|

Verse 2 - Riff thing?

E--------------------------------------------------------------------|
B--------------------------------------------------------------------|
G--8-8-8-8-8-8-8-8--10-10-10-10-10-10-10-10--13-13-13-13-13-13-13-13-|
D--------------------------------------------------------------------|
A--------------------------------------------------------------------|
E--------------------------------------------------------------------|

E--------------------------------------------------------------------------------------------|
B--------------------------------------------------------------------------------------------|
G--8-8-8-8-8-8-8-8--10-10-10-10-10-10-10-10--13-13-13-13-13-13-13-13--15-15-15-15-15-15-15-15|
D--------------------------------------------------------------------------------------------|
A--------------------------------------------------------------------------------------------|
E--------------------------------------------------------------------------------------------|


Verse 3 - It's probably wrong but whatever.

Everything palm muted except for the hammer on from 6 to 8

E-----------------------------------------------------------------------------------|
B-----------------------------------------------------------------------------------|
G-----------------------------------------------------------------------------------|
D-----------------------------------------------------------------------------------|
A----6-8-6-6-8-6-6h8-----------------6-8-6-6-8-6-6h8---6-8-6-6-8-6-6h8---6-8-6-6----|
E-----------------------------------------------------------------------------------|

-----------------------------------------------------------------------------|
-----------------------------------------------------------------------------|
-----------------------------------------------------------------------------|
-----------------------------------------------------------------------------|
8-6-6h8---6-8-6-6-8-6-6h8---6-8-6-6-8-6-6h8---6-8-6-6-8-6-6h8-----Pickslide--|
-----------------------------------------------------------------------------|

            
            
Suggest correction
Creating personal tab
Creating personal tab
You can edit any tab online and save it as your Personal.

You can edit, replace or remove any tab part or add personal notes – all changes will be seen only by you.

Personal tabs can be accessed anytime from any device, even offline.
Learn more »
Give kudos to tab author, rate the tab!
1 2 3 4 5
comments
print report bad tab
guest
Wanna post a correction for this tab? Suggest correction