Oops, an error
Loading. Please wait.

Whatever Reason tab

2,085 views 1 this week
no commentswrite comment
1 2 3 4 5
2 more votes to show rating
add to favorites
×
Save as Personal and add changes to this tab that will be seen only by you. Learn more ›
×
You can save this tab as Personal to edit and correct it or add notes. All changes will be seen only by you. Learn more »
launch autoscroll
font size
0
reset
how to read this tab
guitar tuner
edit
Autoscroll
slow
fast
+/-
esc
set tempo
stop
h - hammer on
p - pull off
\ - slide down
/ - slide up

Verse 1
Guitar 1 (rhythm)
D|---------------------------------------------------|
A|---------------------------------------------------|
F|---------------------------------------------------|
C|---------8-----------------------0-----------------|
G|-------8----8----------10------0----0-----8/10\8---|
C|---8----------8---8h10-----0----------0------------|

|------------------------------------------|
|------------------------------------------|
|------------------------------------------|
|---------8-----------------------0--------|
|-------8----8----------10------0----0-----|
|---8----------8---8h10-----0----------0---|

0:12
|---------------------------------------------------|
|---------------------------------------------------|
|---------------------------------------------------|
|---------8-----------------------0-----------------|
|-------8----8----------10------0----0-----8/10\8---|
|---8----------8---8h10-----0----------0------------|

|------------------------------------------|
|------------------------------------------|
|------------------------------------------|
|---------8-----------------------0--------|
|-------8----8----------10------0----0-----|
|---8----------8---8h10-----0----------0---|

0:24
|---------3----------------------------0---------------|
|-----3--------3----------------------------3----------|
|----0-------------0-----------------------------------|
|---0--------------------------------------------------|
|------------------------------------------------------|
|------------------------------------------------------|

|---------3-----------------2--------------------------|
|--------------3------------3--------------------------|
|------------------0--------2--------------------------|
|---------------------------0--------------------------|
|------------------------------------------------------|
|------------------------------------------------------|

Guitar 2 (lead) 0:12
|---10----8-----------------13----10----------------|
|--------------------------------------10-----------|
|---------------------------------------------------|
|---------------------------------------------------|
|---------------------------------------------------|
|---------------------------------------------------|

|---10----8-----------------------------------------|
|--------------6------------7-----8----10-----------|
|---------------------------------------------------|
|---------------------------------------------------|
|---------------------------------------------------|
|---------------------------------------------------|

0:24
|----10--------------------------------10--------------|
|----8----------------------7-----8--------------------|
|---7--------------------------------------------------|
|------------------------------------------------------|
|------------------------------------------------------|
|------------------------------------------------------|

|------------------------------------------------------|
|----8----------------------7--------------------------|
|---7-----------------------7--------------------------|
|------------------------------------------------------|
|------------------------------------------------------|
|------------------------------------------------------|

0:35
Chorus
Guitar 1
 G          C          Cadd9      Em         D          C
|---3----  |---0----  |---0----  |---0----  |---2----  |---0----|
|---0----  |---1----  |---3----  |---0----  |---3----  |---1----|
|---0----  |---0----  |---0----  |---0----  |---2----  |---0----|
|---0----  |---2----  |---2----  |---2----  |---0----  |---2----|
|--------  |---3----  |---3----  |---2----  |--------  |---3----|
|--------  |--------  |--------  |--------  |--------  |--------|

 G          C          Cadd9      Em         D          C
|---3----  |---0----  |---0----  |---0----  |---2----  |---0----|
|---0----  |---1----  |---3----  |---0----  |---3----  |---1----|
|---0----  |---0----  |---0----  |---0----  |---2----  |---0----|
|---0----  |---2----  |---2----  |---2----  |---0----  |---2----|
|--------  |---3----  |---3----  |---2----  |--------  |---3----|
|--------  |--------  |--------  |--------  |--------  |--------|

 Em         D          C
|---0----  |---2----  |---0----|
|---0----  |---3----  |---1----|
|---0----  |---2----  |---0----|
|---2----  |---0----  |---2----|
|---2----  |--------  |---3----|
|--------  |--------  |--------|

Guitar 2
 G          Cm9        Cadd9      Em         D          Cm9
|--------  |---3----  |---3----  |---7----  |---5----  |---3----|
|--------  |---3----  |---3----  |---8----  |---7----  |---3----|
|--------  |---5----  |---7----  |---9----  |---7----  |---5----|
|---5----  |---5----  |---5----  |---9----  |---7----  |---5----|
|---5----  |---3----  |---3----  |---7----  |---5----  |---3----|
|---5----  |--------  |--------  |--------  |--------  |--------|

 G          Cm9        Cadd9      Em         D          Cm9
|--------  |---3----  |---3----  |---7----  |---5----  |---3----|
|--------  |---3----  |---3----  |---8----  |---7----  |---3----|
|--------  |---5----  |---7----  |---9----  |---7----  |---5----|
|---5----  |---5----  |---5----  |---9----  |---7----  |---5----|
|---5----  |---3----  |---3----  |---7----  |---5----  |---3----|
|---5----  |--------  |--------  |--------  |--------  |--------|

 Em         D          Cm9
|---7----  |---5----  |---3----|
|---8----  |---7----  |---3----|
|---9----  |---7----  |---5----|
|---9----  |---7----  |---5----|
|---7----  |---5----  |---3----|
|--------  |--------  |--------|

1:04
Verse 2
Guitar 1
D|---------------------------------------------------|
A|---------------------------------------------------|
F|---------------------------------------------------|
C|---------8-----------------------0-----------------|
G|-------8----8----------10------0----0-----8/10\8---|
C|---8----------8---8h10-----0----------0------------|

|---------------------------------------------------|
|---------------------------------------------------|
|---------------------------------------------------|
|---------8-----------------------0-----------------|
|-------8----8----------10------0----0-----8/10\8---|
|---8----------8---8h10-----0----------0------------|

|---------------------------------------------------|
|---------------------------------------------------|
|---------------------------------------------------|
|---------8-----------------------0-----------------|
|-------8----8----------10------0----0-----8/10\8---|
|---8----------8---8h10-----0----------0------------|

|---------------------------------------------------|
|---------------------------------------------------|
|---------------------------------------------------|
|---------8-----------------------0-----------------|
|-------8----8----------10------0----0--------------|
|---8----------8---8h10-----0----------0------------|

1:27
|---------3----------------------------0---------------|
|-----3--------3----------------------------3----------|
|----0-------------0-----------------------------0-----|
|---0--------------------------------------------------|
|------------------------------------------------------|
|------------------------------------------------------|

|---------3-----------------2--------------------------|
|--------------3------------3--------------------------|
|------------------0--------2--------------------------|
|---------------------------0--------------------------|
|------------------------------------------------------|
|------------------------------------------------------|

Guitar 2
|--------(8)----------------13----13--10------------|
|----6----------------------------------------------|
|---5-----------------------------------------------|
|---------------------------------------------------|
|---------------------------------------------------|
|---------------------------------------------------|

|----------------------------13---------------------|
|----13---------------------10--11p10---------------|
|---10--10h12---------------------------------------|
|---------------------------------------------------|
|---------------------------------------------------|
|---------------------------------------------------|

|----10---8-------------------10--------------------|
|---8----------6--------------7---------------------|
|----------------------------7----------------------|
|---------------------------------------------------|
|---------------------------------------------------|
|---------------------------------------------------|

|---10----8-----------------------------------------|
|--------------6------------7-----8----10-----------|
|---------------------------------------------------|
|---------------------------------------------------|
|---------------------------------------------------|
|---------------------------------------------------|

1:27
|----10--------------------------------10--------------|
|----8-----------------------7----8--------------------|
|---7-----------------------7--------------------------|
|------------------------------------------------------|
|------------------------------------------------------|
|------------------------------------------------------|

|-------------------------------5----------------------|
|----8-------------------------7-----------------------|
|---7-------------------------7------------------------|
|----------------------------7-------------------------|
|---------------------------5--------------------------|
|------------------------------------------------------|

1:39
Chorus

2:02
|--------------------------------------------------------------------------------|
|--------------------------------------------------------------------------------|
|---8--8-8-8-8--x-1010101010x-12--12-12-12-12-12-12-12--x-15-15-15-15-15-15-15---|
|---8--8-8-8-8--x-1010101010x-12--12-12-12-12-12-12-12--x-15-15-15-15-15-15-15---|
|---6--6-6-6-6--x-8-8-8-8-8-x-10--10-10-10-10-10-10-10--x-13-13-13-13-13-13-13---|
|--------------------------------------------------------------------------------|

|-------------------------------------------------------|
|-------------------------------------------------------|
|---8--8-8-8-8--x-1010101010x-12--12-12-12-12-12-12-12--|
|---8--8-8-8-8--x-1010101010x-12--12-12-12-12-12-12-12--|
|---6--6-6-6-6--x-8-8-8-8-8-x-10--10-10-10-10-10-10-10--|
|-------------------------------------------------------|

|--------------------------------------------------------------------------------|
|--------------------------------------------------------------------------------|
|---8--8-8-8-8--x-1010101010x-12--12-12-12-12-12-12-12--x-15-15-15-15-15-15-15---|
|---8--8-8-8-8--x-1010101010x-12--12-12-12-12-12-12-12--x-15-15-15-15-15-15-15---|
|---6--6-6-6-6--x-8-8-8-8-8-x-10--10-10-10-10-10-10-10--x-13-13-13-13-13-13-13---|
|--------------------------------------------------------------------------------|

|--------------------------------------------------------------------------------|
|--------------------------------------------------------------------------------|
|---8--8-8-8-8--x-1010101010x-12--12-12-12-12-12-12-12--7-7-7-7-7-7-7-7-7-7-7----|
|---8--8-8-8-8--x-1010101010x-12--12-12-12-12-12-12-12--7-7-7-7-7-7-7-7-7-7-7----|
|---6--6-6-6-6--x-8-8-8-8-8-x-10--10-10-10-10-10-10-10--5-5-5-5-5-5-5-5-5-5-5----|
|--------------------------------------------------------------------------------|

2:28
Chorus (Acoustic)
 D          Dsus4      D          C          Cadd9
|---2----  |---3----  |---2----  |---0----  |---0----|
|---3----  |---3----  |---3----  |---1----  |---3----|
|---2----  |---2----  |---2----  |---0----  |---0----|
|---0----  |---0----  |---0----  |---2----  |---2----|
|--------  |--------  |--------  |---3----  |---3----|
|--------  |--------  |--------  |--------  |--------|

2:33
|-----------|
|-----------|
|-----------|
|---6/9\\---|
|---6/9\\---|
|---6/9\\---|

Repeat Chorus

End on:
Guitar 1
 Cadd9
|---3----|
|---3----|
|---7----|
|---5----|
|---3----|
|--------|

|---0----|
|---3----|
|---0----|
|---2----|
|---3----|
|--------|

            
            
Suggest correction
Creating personal tab
Creating personal tab
You can edit any tab online and save it as your Personal.

You can edit, replace or remove any tab part or add personal notes – all changes will be seen only by you.

Personal tabs can be accessed anytime from any device, even offline.
Learn more »
Give kudos to tab author, rate the tab!
1 2 3 4 5
comments
print report bad tab
guest
You may want to rate the tab now too:
select rating
Wanna post a correction for this tab? Suggest correction