Oops, an error
Loading. Please wait.

Magic Recoveries bass

115 views 3 this week
2 commentsread comments
1 2 3 4 5
2 more votes to show rating
add to favorites
×
Save as Personal and add changes to this tab that will be seen only by you. Learn more ›
×
You can save this tab as Personal to edit and correct it or add notes. All changes will be seen only by you. Learn more »
launch autoscroll
font size
0
reset
guitar tuner
edit
Autoscroll
slow
fast
+/-
esc
set tempo
stop
Author
This is my first tab. To have an idea circa the time and the rythm listen to the song carefully

It's pretty simple to play tho

bass starts at 0:03

G |-------------------------------------------------------------------------------|
D |-7-7-7-7-7-7-7-9-9-9-9-9-9-9-9-10-10-10-10-10-10-10-10-12-12-12-12-12-12-12-12-|
A |-------------------------------------------------------------------------------|
D |-------------------------------------------------------------------------------|

G |-------------------------------------------------------------------------------|
D |-7-7-7-7-7-7-7-9-9-9-9-9-9-9-9-10-10-10-10-10-10-10-10-0-0-0-0-0---------------|
A |-------------------------------------------------------------------------------|
D |-------------------------------------------------------------------------------|

*rest*

0:22 VERSE
G |-99999999------------------------------99999999--------------------------------|
D |-------------7-7---7-7-----7-7---7-7----------------7-7---7-7---7-7-----7-7----|
A |-------------------------------------------------------------------------------|
D |-------------------------------------------------------------------------------|

0:36 CHORUS
G |-------------------------------------------------------------------------------|
D |-7-7-7-7-7-7-7-9-9-9-9-9-9-9-9-10-10-10-10-10-10-10-10-12-12-12-12-12-12-12-12-|
A |-------------------------------------------------------------------------------|
D |-------------------------------------------------------------------------------|

G |-------------------------------------------------------------------------------|
D |-7-7-7-7-7-7-7-9-9-9-9-9-9-9-9-10-10-10-10-10-10-10-10-0-0-0-0-0---------------|
A |-------------------------------------------------------------------------------|
D |-------------------------------------------------------------------------------|

0:49 VERSE 2 (immediately after the chorus)
G |----------------------------99999999-------------------------------------------|
D |-7-7---7-7-----7-7---7-7---------------7-7---7-7--I DON'T BELIEVE IN-7-7---7-7-| MAGIC RECOVERIES!
A |-------------------------------------------------------------------------------|
D |-------------------------------------------------------------------------------|

1:03 CHORUS 2
G |-------------------------------------------------------------------------------|
D |-7-7-7-7-7-7-7-9-9-9-9-9-9-9-9-10-10-10-10-10-10-10-10-12-12-12-12-12-12-12-12-|
A |-------------------------------------------------------------------------------|
D |-------------------------------------------------------------------------------|

G |-------------------------------------------------------------------------------|
D |-7-7-7-7-7-7-7-9-9-9-9-9-9-9-9-10-10-10-10-10-10-10-10-0-0-0-0-0---------------|
A |-------------------------------------------------------------------------------|
D |-------------------------------------------------------------------------------|

1:16 GUITAR SOLO
G |-------------------------------------------------------------------------------| 
D |-77777777-55555555-33333333-00000000--77777777-55555555-33333333-00000000------|
A |-------------------------------------------------------------------------------|
D |-------------------------------------------------------------------------------|

1:31 (together with the first note of the piano)
G |-------------------------------------------------------------------------------|
D |--7 let ring-------------------------------------------------------------------|
A |-------------------------------------------------------------------------------|
E |-------------------------------------------------------------------------------|

All I can think of is my weird obsessions
All I can think of is my fucking dick
I know what I'll say to you
All I can think of is you

2:17 (well, free yourself from here to the end)
G |-------------------------------------------------------------------------------|
D |-------------------------------------------------------------------------------|
A |-------------------------------------------------------------------------------|
D |-7777-7777-7777-7777-7777-555--10101010-10101010-10101010-10101010-10101010----| 
(it's 10 and not 1-0)

G |-------------------------------------------------------------------------------|
D |-------------------------------------------------------------------------------|
A |-------------------------------------------------------------------------------|
D |-[12121212 play this 5 times]---101010----[15151515 play this 5 times]---------| 
(It's 12, 10 and 15, not 1-2, 1-0 and 1-5)

2:30
G |-------------------------------------------------------------------------------|
D |-------------------------------------------------------------------------------|
A |-[12 play for 16times]---------------------------------------------------------|
D |------------------------[10 for 16times]---[12 for 16times]---[15 for 16times]-|

2:43 CHORUS
G |-------------------------------------------------------------------------------|
D |-7-7-7-7-7-7-7-9-9-9-9-9-9-9-9-10-10-10-10-10-10-10-10-12-12-12-12-12-12-12-12-|
A |-------------------------------------------------------------------------------|
D |-------------------------------------------------------------------------------|

2:57 OUTRO (listen to the song)
G |-------------------------------------------------------------------------------|
D |-------------------------------------------------------------------------------|
A |-------------------------------------------------------------------------------|
D |-7-7--7-7---7-7--7-7---play this until 3:07------------------------------------|

G |-------------------------------------------------------------------------------|
D |-------------------------------------------------------------------------------|
A |-------------------------------------------------------------------------------|
D |-12-12-12-12-12-12-12-12-12121212--7 let ring----------------------------------|


I told you it was easy.

But if you have something to tell me, feel free to do it.

            
            
Suggest correction
Creating personal tab
Creating personal tab
You can edit any tab online and save it as your Personal.

You can edit, replace or remove any tab part or add personal notes – all changes will be seen only by you.

Personal tabs can be accessed anytime from any device, even offline.
Learn more »
Give kudos to tab author, rate the tab!
1 2 3 4 5
comments
print report bad tab
2 comments total.
0 reply
10Sam 93 Mar 23, 2013 11:34 AM

The part from 2:43 (CHORUS) well that is not the chorus, this is the correct tab for that part:

G |---------------------------------------------------------------|
D |---------------------------------------------------------------|
A |---------------------------------------------------------------|
D |-7-7-7-7-7-7-7-7--10-10-10-10-10-10-10-10--12-12-12-12-12-12-12-12-15-15-15-15-15-15-15-15-|

and then the rest is the same

see you

0 reply
JeySUN 31 Feb 01, 2015 08:57 AM

nice one, mate

guest
You may want to rate the tab now too:
select rating
Wanna post a correction for this tab? Suggest correction