Oops, an error
Loading. Please wait.

Second Soul bass

364 views 1 this week
no commentswrite comment
1 2 3 4 5
2 more votes to show rating
add to favorites
×
Save as Personal and add changes to this tab that will be seen only by you. Learn more ›
×
You can save this tab as Personal to edit and correct it or add notes. All changes will be seen only by you. Learn more »
launch autoscroll
font size
0
reset
guitar tuner
edit
Autoscroll
slow
fast
+/-
esc
set tempo
stop
Author
Difficulty
So here we go! 
It was relatively hard to find out what the bassist is acutally playing there, but 
it's a very easy and fun song to play when you've figured out with that part. 
Any corrections are very welcome! This is the way I hear it. 
Enjoy! :)


Verse (4x):
|--------------------------------------------------------------|
|--------------------------------------------------------------|
|--0-0-0-0-0-0-0-0-0--5-5-5-5-5-5-5-5--2-2-2-2-2-2-2-2---------|
|--------------------------------------------------------------|

Chorus (4x): 
|--------------------------------------------------------------|
|-------------5-5-5-5-5----------------------------------------|
|--2-2-2-2-2-------------5-5-5-5-5--0-0-0-0-0------------------|
|--------------------------------------------------------------|

Rest until 1:11
Verse (Start it with 2's on the A-string and then it goes as above) 

Chorus

Interlude (2x) - Let ring:
|-------------------------------------------------------------|
|-------------5--------0--------------------------------------|
|--2-----------------------------2----------------------------|
|-------------------------------------------------------------|

Then rest until 2:54

Chorus

End with
|---------|
|---------|
|---2-----|
|---------|

            
            
Suggest correction
Creating personal tab
Creating personal tab
You can edit any tab online and save it as your Personal.

You can edit, replace or remove any tab part or add personal notes – all changes will be seen only by you.

Personal tabs can be accessed anytime from any device, even offline.
Learn more »
Give kudos to tab author, rate the tab!
1 2 3 4 5
comments
print report bad tab
guest
You may want to rate the tab now too:
select rating
Wanna post a correction for this tab? Suggest correction