Oops, an error
Loading. Please wait.

7 Stitches tab

298 views 6 this week
no commentswrite comment
1 2 3 4 5
2 more votes to show rating
add to favorites
×
Save as Personal and add changes to this tab that will be seen only by you. Learn more ›
×
You can save this tab as Personal to edit and correct it or add notes. All changes will be seen only by you. Learn more »
launch autoscroll
font size
0
reset
how to read this tab
guitar tuner
edit
Autoscroll
slow
fast
+/-
esc
set tempo
stop
PH = Pinched Harmonic
NH - Natural Harmonic
h = hammer on
p = pull off 
* = Palm mute

C|----------------------------------------|
 G|-----17-----17---17-----17---17---17-17-|
D#|-----20-----20---20-----20---20---20-20-|
A#|----------------------------------------| x3
 F|-0-0----0-0----0----0-0----0----0-------|
A#|-0-0----0-0----0----0-0----0----0-------|
    * *    * *    *    * *    *    *

 C|----------------------------------------------------------------------|
 G|-----17-----17---17---------------------------------------------------|
D#|-----20-----20---20---------------------------------------------------|
A#|----------------------------------------------------------------------| x1
 F|-0-0----0-0----0----6666666666666666-13131313131313131313131313131313-|
A#|-0-0----0-0----0------------------------------------------------------|
    * *    * *    *

 C|---------------------------------|
 G|---------------------------------|
D#|---------------------------------|
A#|---------------------------------| x4
 F|-0-0-0--0-0-0--0-0--0-0-0--0-0-1-|
A#|-0-0-0--0-0-0--0-0--0-0-0--0-0-1-|
    * *    * *    *    * *      *

C |-----------------------------------------------------------|
G |-----------------------------------------------------------|
D#|-----------------------------------------------------------|
A#|-0----------------------------0----------------------------| x2
F |-0-(Ring out)-1-1-1-1-1-1-1-1-0-(Ring out)-----------------|
A#|-0------------1-1-1-1-1-1-1-1-0------------1-3-3-3-1-3-3-3-|
                 * * * * * * * *     

 C|----------------------------------------|
 G|-----17-----17---17-----17---17---17-17-|
D#|-----20-----20---20-----20---20---20-20-|
A#|----------------------------------------| 1,2,3,5,6,7
 F|-0-0----0-0----0----0-0----0----0-------|
A#|-0-0----0-0----0----0-0----0----0-------|
    * *    * *    *    * *    *    *

     C|-------------------------------------------|
     G|-----17-----17---17-----17---17---17171717-|
GTR D#|-----20-----20---20-----20---20---20202020-|
 1  A#|-------------------------------------------| 4,8
     F|-0-0----0-0----0----0-0----0----0----------|
    A#|-0-0----0-0----0----0-0----0----0----------|
        * *    * *    *    * *    *    *

     C|----------------------------------17171717-|
     G|-----17-----17---17-----17---17---21212121-|
GTR D#|-----20-----20---20-----20---20------------|
 2  A#|-------------------------------------------| 4,8
     F|-0-0----0-0----0----0-0----0----0----------|
    A#|-0-0----0-0----0----0-0----0----0----------|
        * *    * *    *    * *    *    *

C |---------------------------------------------------------------------------------------|
G |---------------------------------------------------------------------------------------|
D#|---------------------------------------------------------------------------------------|
A#|-------------------------------------------0----------------------------7---9---10---9-| 1,3
F |-------------------------------------------0--------------------------0-5-0-7-0-8--0-7-|
A#|-0h1h2-0h1h2-0h1h2-0h1h2-0h1h2-0h1h2-0h1h2-0--0h1h2-0h1h2-0h1h2-0h1h2-0---0---0----0---|
                                                                         *   *   *    *

C |--------------------------------------------------------------------------------------|
G |--------------------------------------------------------------------------------------|
D#|--------------------------------------------------------------------------------------|
A#|-------------------------------------------0--------------------------5-6-6-6-5-6-6-6-| 2,4
F |-------------------------------------------0------------------------------------------|
A#|-0h1h2-0h1h2-0h1h2-0h1h2-0h1h2-0h1h2-0h1h2-0--0h1h2-0h1h2-0h1h2-0h1h2-----------------|

C |-----------------------------------------------------------|
G |-----------------------------------------------------------|
D#|-----------------------------------------------------------|
A#|-0----------------------------0----------------------------| x1
F |-0-(Ring out)-1-1-1-1-1-1-1-1-0-(Ring out)-----------------|
A#|-0------------1-1-1-1-1-1-1-1-0------------1-3-3-3-1-3-3-3-|
                 * * * * * * * * 

 C|----------------------------------------|
 G|-----17-----17---17-----17---17---17-17-|
D#|-----20-----20---20-----20---20---20-20-|
A#|----------------------------------------| 1,2,3,5,6,7
 F|-0-0----0-0----0----0-0----0----0-------|
A#|-0-0----0-0----0----0-0----0----0-------|
    * *    * *    *    * *    *    *

     C|-------------------------------------------|
     G|-----17-----17---17-----17---17---17171717-|
GTR D#|-----20-----20---20-----20---20---20202020-|
 1  A#|-------------------------------------------| 4,8
     F|-0-0----0-0----0----0-0----0----0----------|
    A#|-0-0----0-0----0----0-0----0----0----------|
        * *    * *    *    * *    *    *

     C|----------------------------------17171717-|
     G|-----17-----17---17-----17---17---21212121-|
GTR D#|-----20-----20---20-----20---20------------|
 2  A#|-------------------------------------------| 4,8
     F|-0-0----0-0----0----0-0----0----0----------|
    A#|-0-0----0-0----0----0-0----0----0----------|
        * *    * *    *    * *    *    *

C |---------------------------------------------------------------------------------------|
G |---------------------------------------------------------------------------------------|
D#|---------------------------------------------------------------------------------------|
A#|-------------------------------------------0----------------------------7---9---10---9-| 1,3
F |-------------------------------------------0--------------------------0-5-0-7-0-8--0-7-|
A#|-0h1h2-0h1h2-0h1h2-0h1h2-0h1h2-0h1h2-0h1h2-0--0h1h2-0h1h2-0h1h2-0h1h2-0---0---0----0---|
                                                                         *   *   *    *

C |--------------------------------------------------------------------------------------|
G |--------------------------------------------------------------------------------------|
D#|--------------------------------------------------------------------------------------|
A#|-------------------------------------------0--------------------------5-6-6-6-5-6-6-6-| 2,4
F |-------------------------------------------0------------------------------------------|
A#|-0h1h2-0h1h2-0h1h2-0h1h2-0h1h2-0h1h2-0h1h2-0--0h1h2-0h1h2-0h1h2-0h1h2-----------------|
                                                                         
C |------------|
G |------------|
D#|------------|
A#|-6p5------5-| x1 
F |-6p5------5-|
A#|-6p5--000-5-|
         ***            

C |---------------|--------------|
G |----- x2 ------|--------------|
D#|---------------|--------------|
A#|-6-6-6-5-----5-|-6-6-6-5------| x1
F |-6-6-6-5-----5-|-6-6-6-5------|
A#|-6-6-6-5-000-5-|-6-6-6-5-000--|
            ***             ***

C |---------------|--------------|
G |----- x3 ------|--------------|
D#|---------------|--------------|
A#|-6-6-6-5-----5-|-6-6-6-5------| x2
F |-6-6-6-5-----5-|-6-6-6-5------|
A#|-6-6-6-5-000-5-|-6-6-6-5-000--|
            ***             ***

C |---------------|------------------------------|
G |----- x3 ------|------------------------------|
D#|---------------|------------------------------|
A#|-6-6-6-5-----5-|-6----------------------------| x1 
F |-6-6-6-5-----5-|-6--3-3-3-3-3-3-3-3-3-3-3-3-3-|
A#|-6-6-6-5-000-5-|-6--3-3-3-3-3-3-3-3-3-3-3-3-3-|
            ***        * * * * * * * * * * * * *     

C |-----------------------------------------------------------|
G |-----------------------------------------------------------|
D#|-----------------------------------------------------------|
A#|-----------------------------------------------------------| 1,3
F |-0--0-0-0--0-0-0--0-0-0--0-0-0--0-0-0--0-0-----------------|
A#|-0--0-0-0--0-0-0--0-0-0--0-0-0--0-0-0--0-0-1-3-3-3-3-3-3-3-|
       * *    * *    * *    * *    * *    * *

C |-----------------------------------------------------------|
G |-----------------------------------------------------------|
D#|-----------------------------------------------------------|
A#|-----------------------------------------------------------| 2
F |-0--0-0-0--0-0-0--0-0-0--0-0-0--0-0-0--0-0---4-3---6-5---9-|
A#|-0--0-0-0--0-0-0--0-0-0--0-0-0--0-0-0--0-0-0-----0-----0---|
       * *    * *    * *    * *    * *    * * *     *     *

C |--------------------------------------------------------------|
G |--------------------------------------------------------------|
D#|--------------------------------------------------------------|
A#|--------------------------------------------------------------| 4
F |-0--0-0-0--0-0-0--0-0-0--0-0-0--0-0-0--0-0---4-3---6-5---9-8--|
A#|-0--0-0-0--0-0-0--0-0-0--0-0-0--0-0-0--0-0-0-----0-----0------|
       * *    * *    * *    * *    * *    * * *     *     *

C |--------------------|
G |--------------------|
D#|--------------------|
A#|--------------------| x2
F |---4-3---6-5---9-8--|
A#|-0-----0-----0------|
    *     *     *

    C |-------------------------------|
    G |-------------------------------|
GTR D#|-------------------------------|
 1  A#|----------------------------11-| 
    F |---4-3---6-5---9-8--11--10-----|
    A#|-0-----0-----0-----------------|
        *     *     *

    C |-------------------------------|
    G |-------------------------------|
GTR D#|----------------------------11-|
 2  A#|---------------9-8--11--10-----| 
    F |---5-4---7-6-------------------|
    A#|-0-----0-----0-----------------|
        *     *     *

C |-----------------------------------------------------|
G |-----------------------------------------------------|
D#|-----------------------------------------------------|
A#|-----------------------------------------------------| x2
F |-------------------------------------0-1-3PH---------|
A#|-1--2--3--0--1--2--3--0--1--2--3--0--0-1-----6-5-3-5-|
                                        * *

C |-----------------------------------------------------|
G |-----------------------------------------------------|
D#|-----------------------------------------------------|
A#|-1--2--3--0--1--2--3--0--1--2--3--0----------6-5-3-5-| x2
F |-1--2--3--0--1--2--3--0--1--2--3--0--0-1-3PH-6-5-3-5-|
A#|-1--2--3--0--1--2--3--0--1--2--3--0--0-1-----6-5-3-5-|
                                        * *

C |-----------------------------------------------------|
G |-----5NH---------------------------------------------|
D#|-----------------------------------------------------|
A#|-----------------------------1--2--3--0--1--2--3--0--| x3
F |-0-0-------------------------1--2--3--0--1--2--3--0--|
A#|-0-0-------------------------1--2--3--0--1--2--3--0--|
    * *

C |---------------------------------------------------------------------------------|
G |-----5NH-------------------------------------------------------------------------|
D#|---------------------------------------------------------------------------------|
A#|-----------------------------1--2--3--0--1--2--3--0--1--2--3--0----------6-5-3-5-| x1
F |-0-0-------------------------1--2--3--0--1--2--3--0--1--2--3--0--0-1-3PH-6-5-3-5-|
A#|-0-0-------------------------1--2--3--0--1--2--3--0--1--2--3--0--0-1-----6-5-3-5-|
    * *                                                             * *

C |-----------------------------------------------------|
G |-----------------------------------------------------|
D#|-----------------------------------------------------|
A#|-1--2--3--0--1--2--3--0--1--2--3--0----------6-5-3-5-| x1
F |-1--2--3--0--1--2--3--0--1--2--3--0--0-1-3PH-6-5-3-5-|
A#|-1--2--3--0--1--2--3--0--1--2--3--0--0-1-----6-5-3-5-|
                                        * *

C |-----------------------------------------------------|
G |-----------------------------------------------------|
D#|-----------------------------------------------------|
A#|-----------------------------------------------------| x1
F |-------------------------------------0-1-3PH---------|
A#|-1--2--3--0--1--2--3--0--1--2--3--0--0-1-----6-5-3-5-|
                                        * *

    C |-----------------------------------------------------|
    G |-----------------------------------------------------|
GTR D#|-----------------------------------------------------|
 1  A#|-----------------------------------------------------| x1
    F |-------------------------------------0-1-3PH---------|
    A#|-1--2--3--0--1--2--3--0--1--2--3--0--0-1-----6-5-3-5-|
                                            * *

    C |-----------------------------------------------------|
    G |-----------------------------------------------------|
GTR D#|---4-----3-----4-----3-----4-----3-------------------|
 2  A#|---2-----1-----2-----1-----2-----1-------------------| x1
    F |-1-1---1-1---1-1---1-1---1-1---1-1---0-1-3PH---------|
    A#|-1-1---1-1---1-1---1-1---1-1---1-1---0-1-----6-5-3-5-|
                                            * *

C |------------------------------|
G |-----5NH-(Ring out until end)-|
D#|------------------------------|
A#|------------------------------|
F |-0-0--------------------------|
A#|-0-0--------------------------|
    * *


            
            
Suggest correction
Creating personal tab
Creating personal tab
You can edit any tab online and save it as your Personal.

You can edit, replace or remove any tab part or add personal notes – all changes will be seen only by you.

Personal tabs can be accessed anytime from any device, even offline.
Learn more »
Give kudos to tab author, rate the tab!
1 2 3 4 5
comments
print report bad tab
guest
You may want to rate the tab now too:
select rating
Wanna post a correction for this tab? Suggest correction