Oops, an error
Loading. Please wait.

Counting Blue Cars Acoustic intro tab

6,644 views 3 this week
no commentswrite comment
1 2 3 4 5
1 last vote to show rating
add to favorites
×
Save as Personal and add changes to this tab that will be seen only by you. Learn more ›
×
You can save this tab as Personal to edit and correct it or add notes. All changes will be seen only by you. Learn more »
launch autoscroll
font size
0
reset
how to read this tab
guitar tuner
edit
Autoscroll
slow
fast
+/-
esc
set tempo
stop
This is the intro to the acoustic version of Dishwalla's "Counting Blue Cars".
I couldn't find it anywhere on the net, so I did it myself.

As usual, I'm lazy enough to not bother to time it that correctly. It's fairly
accurate, but probably not perfect. It's easy to pick it up from the song though,
so no worries.

E----------------------------------------------------------------
B—-5/7-----------10--12--5-----------3-2h5-5/7-3p0-----------2/3-
G----------------------------------------------------------------
D----------------------------------------------------------------
A----------------------------------------------------------------
E----------------------------------------------------------------

E---------------------------------------------2------------------
B-2---------------------6/7-7-3p2--2h3p2p0h2h3----0--3-0------/12
G---2-------------------------------------------2----------------
D-----2-2-3/4----------------------------------------------------
A----------------------------------------------------------------
E----------------------------------------------------------------

E----------------------------------------------------------------
B-10--7--5-3-2-0-------------------------------------------------
G----------------------------------------------------------------
D----------------------------------------------------------------
A----------------------------------------------------------------
E----------------------------------------------------------------

            
            
Suggest correction
Creating personal tab
Creating personal tab
You can edit any tab online and save it as your Personal.

You can edit, replace or remove any tab part or add personal notes – all changes will be seen only by you.

Personal tabs can be accessed anytime from any device, even offline.
Learn more »
Give kudos to tab author, rate the tab!
1 2 3 4 5
comments
print report bad tab
guest
Wanna post a correction for this tab? Suggest correction