Oops, an error
Loading. Please wait.

Prince Of Spades solo tab

version 1
version 1

Solo

Whole song

1,510 views 1 this week
no commentswrite comment
1 2 3 4 5
3 more votes to show rating
add to favorites
×
Save as Personal and add changes to this tab that will be seen only by you. Learn more ›
×
You can save this tab as Personal to edit and correct it or add notes. All changes will be seen only by you. Learn more »
launch autoscroll
font size
0
reset
how to read this tab
guitar tuner
edit
Autoscroll
slow
fast
+/-
esc
set tempo
stop
-------------------------------------------------------------------------------
                        Prince of Spades Solo - Dispatch
-------------------------------------------------------------------------------
Tabbed by: Dylan Whaley
Email: dcwhaley@uwm.edu

…thought I’d finally try and contribute to the world of tabs after a year…so here it 
Here’s some of the solo I managed to get down…heavy distortion with reverb, small delay and 
(listen to song for muted strumming)

Tuning:

e|---------------------------------------------------------------------------|
B|---------------------------------------------------------------------------|
G|---------------------------------------------------------------------------|
D|--------10h12---10h12---10h12---10h12~~~~~--(4x)---------------------------|
A|---------------------------------------------------------------------------|
E|---------------------------------------------------------------------------|

e|-------------------------------------------------------x----------------------|
B|-----------------------------------------10-13—10~~~---x----------------------|
G|-------------------------------------------------------x-*(go to key) --------|
D|--------10h12---10h12---10h12---10h12~~----------------x----------------------|
A|-------------------------------------------------------x----------------------|
E|------------------------------------------------------------------------------|

e|---------------------------------------------------------------------------|
B|---------------------------------------------------------------------------|
G|------------------------------------------10-10h12-10h12-12~~--------------|
D|--------10h12---10h12---10h12---10h12~~------------------------------------|
A|---------------------------------------------------------------------------|
E|----------------------------------------------------------------10\5-------|

e|---------------------------------------------------------------------------|
B|---------------------------------------------------------------------------|
G|------------------------------------------12b14~~--14-14-14-14r12p10-------|
D|---------10h12---10h12---10h12---10h12~~-----------------------------------|
A|---------------------------------------------------------------------------|
E|---------------------------------------------------------------------------|

e|----------------------------------13p12p10-13p12p10-13p12p10…--------------|
B|---------------------------------------------------------------------------|
G|----------10---------------------------------------------------------------|
D|-12p10h12----12~~~~--------------------------------------------------------|
A|---------------------------------------------------------------------------|
E|---------------------------------------------------------------------------|

e|---------------------------------------------------------------------------|
B|---------------------------------------------------------------------------|
G|---------------------------------------------------------------------------|
D|--------10h12---10h12---10h12---10h12~~------------------------------------|
A|---------------------------------------------------------------------------|
E|---------------------------------------------------------------------------|

Keep soloing in D minor pentatonic, should be good.  Have to listen to the song to find 
rest, but it’ll be there sometime.  Don’t forget to rate!

* For the rest of the solo, start picking some of the muted lower stings throughout the 
while picking the rest

| /  slide up
| \  slide down
| h  hammer-on
| p  pull-off
| ~  vibrato
| +  harmonic
| x  Mute note
===============================================================================

            
            
Suggest correction
Creating personal tab
Creating personal tab
You can edit any tab online and save it as your Personal.

You can edit, replace or remove any tab part or add personal notes – all changes will be seen only by you.

Personal tabs can be accessed anytime from any device, even offline.
Learn more »
Give kudos to tab author, rate the tab!
1 2 3 4 5
comments
print report bad tab
guest
Wanna post a correction for this tab? Suggest correction