Oops, an error
Loading. Please wait.

Two Coins tab

version 2
version 2

Whole song

128,043 views 96 this week
7 commentsread comments
1 2 3 4 5
x 64
add to favorites
×
Save as Personal and add changes to this tab that will be seen only by you. Learn more ›
×
You can save this tab as Personal to edit and correct it or add notes. All changes will be seen only by you. Learn more »
launch autoscroll
font size
0
reset
how to read this tab
guitar tuner
edit
Autoscroll
slow
fast
+/-
esc
set tempo
stop
Author
Difficulty
Intro
                  D       C       G

e|-----------------5--(x)--3--(x)--3-----------------|
B|-----------------7--(x)--5--(x)--3-----------------|
G|----4h5p4--------7--(x)--5--(x)--4--3p0---3--------|
D|--5--------------7--(x)--5--(x)--5------5---5p3p0--|
A|-----------7--5--5--(x)--3--(x)--5-----------------|
E|----------------------------(x)--3-----------------|

                  D       C       G

e|-----------------5--(x)--3--(x)--3--|
B|-----------------7--(x)--5--(x)--3--|
G|----4h5p4--------7--(x)--5--(x)--4--|
D|--5--------------7--(x)--5--(x)--5--|
A|-----------7--5--5--(x)--3--(x)--5--|
E|----------------------------(x)--3--|


[1st Verse/Chorus]

                  D       C       G

e|-----------------5--(x)--3--(x)--3--|
B|-----------------7--(x)--5--(x)--3--|
G|----4h5p4--------7--(x)--5--(x)--4--| x8
D|--5--------------7--(x)--5--(x)--5--|
A|-----------7--5--5--(x)--3--(x)--5--|
E|----------------------------(x)--3--|


I stick loneliness, your lips
and the two coins of your eyes
into my pockets, yeah

well the train skates into
Port Henry late Sunday
sometimes when I'm riding high
feeling fine you know there's something
troubling yeah,troubling my mind

so I reach into my pocket for some
small change
I reach into my pocket for some
small change


[Interlude 1]

   D     Em      G      Em    D     C

e|--5-----7-------10-----7-----5-----3---|
B|--7-----7h8-----12-----8-----7-----5---|
G|--7-----7h9-----12-----9-----7-----5---|
D|--7-----7h9-----12-----9-----7-----5---|
A|--5-----7-------10-----7-----5-----3---|
E|---------------------------------------|
(The chord changes are somewhat quick here.)


[2nd Verse/Chorus]

                  D       C       G

e|-----------------5--(x)--3--(x)--3--|
B|-----------------7--(x)--5--(x)--3--|
G|----4h5p4--------7--(x)--5--(x)--4--| x7
D|--5--------------7--(x)--5--(x)--5--|
A|-----------7--5--5--(x)--3--(x)--5--|
E|----------------------------(x)--3--|


I want bones like iron, blood like mercury
so I can tell you when I'm rising
and when I'm sinking in, I'm sinking in,
I'm sinking in, I'm sinking in

I reach into my pocket for some
small change
I reach into my pocket for some
small change, yeah


[Interlude 2]

   D     Em      G      Em    D     C

e|--5-----7-------10-----7-----5-----3---|
B|--7-----7h8-----12-----8-----7-----5---|
G|--7-----7h9-----12-----9-----7-----5---|
D|--7-----7h9-----12-----9-----7-----5---| x2
A|--5-----7-------10-----7-----5-----3---|
E|---------------------------------------|


[3rd Verse]

                  D       C       G

e|-----------------5--(x)--3--(x)--3--|
B|-----------------7--(x)--5--(x)--3--|
G|----4h5p4--------7--(x)--5--(x)--4--| x4
D|--5--------------7--(x)--5--(x)--5--|
A|-----------7--5--5--(x)--3--(x)--5--|
E|----------------------------(x)--3--|

we're gonna take it to the people, yeah
we're gonna take it to the people, yeah
we're gonna take it to the people, yeah
we're gonna take it to the people, yeah

          D       C       G

e|-----------------5--(x)--3--(x)--3--|
B|-----------------7--(x)--5--(x)--3--|
G|----4h5p4--------7--(x)--5--(x)--4--|
D|--5--------------7--(x)--5--(x)--5--|
A|-----------7--5--5--(x)--3--(x)--5--|
E|----------------------------(x)--3--|

                  D       C       G

e|-----------------5--(x)--3--(x)--3-----------------|
B|-----------------7--(x)--5--(x)--3-----------------|
G|----4h5p4--------7--(x)--5--(x)--4--3p0---3--------|
D|--5--------------7--(x)--5--(x)--5------5---5p3p0--|
A|-----------7--5--5--(x)--3--(x)--5-----------------|
E|----------------------------(x)--3-----------------|

hey let's drink from the cup
share some luck
go ahead and laugh cause it don't
cost much, no, no, no, it don't
cost much


[Outro]

e|-----------------(x)--(x)--(x)|
B|-----------------(x)--(x)--(x)|
G|----4h5p4--------(x)--(x)--(x)|
D|--5--------------(x)--(x)--(x)|
A|-----------7--5--(x)--(x)--(x)|
E|---------------------------(x)|

(The chords are pretty much muted from this point on, you can keep playing the riff and
the chords or do whatever you'd like.)

I stick loneliness, your lips
and the two coins of your eyes
into my pockets

            
            
Suggest correction
Creating personal tab
Creating personal tab
You can edit any tab online and save it as your Personal.

You can edit, replace or remove any tab part or add personal notes – all changes will be seen only by you.

Personal tabs can be accessed anytime from any device, even offline.
Learn more »
comments
print report bad tab
7 comments total. Showing first comments.
0 reply
jhm5005 51 Apr 05, 2007 05:23 PM

good tab yo~

0 reply
bropark08 135 May 05, 2007 06:54 PM

nice tab

+2 reply
cpt jaredkent 103 Mar 29, 2008 04:02 PM

Outro- Minor correction:

------------------x-x-----x-x-----x-x--
------------------x-x-----x-x-----x-x--
----4h5p4---------x-x---5-x-x-----x-x-- x1
-5--------5-------x-x---5-x-x---5-x-x--
-------------5--5-x-x---3-x-x---5-x-x--
--------------------------------3-x-x--

guest
You may want to rate the tab now too:
select rating
Wanna post a correction for this tab? Suggest correction