Oops, an error
Loading. Please wait.

Walk With You tab

version 2
version 2

Whole song

5,924 views 1 this week
no commentswrite comment
1 2 3 4 5
x 6
add to favorites
×
Save as Personal and add changes to this tab that will be seen only by you. Learn more ›
×
You can save this tab as Personal to edit and correct it or add notes. All changes will be seen only by you. Learn more »
launch autoscroll
font size
0
reset
how to read this tab
guitar tuner
edit
Autoscroll
slow
fast
+/-
esc
set tempo
stop
Dispatch
Silent Steeples
Walk With You

Sorry about the weird spacing.

^ - harmonic

**CAPO 2ND FRET**

---------0h2-------------0h2----------0h2-------------0h2p0------|
-------3-----3---------3------------3-----3---------3-------3----|
---0h2---------2---0h2----------0h2---------2---0h2-----------2--|	x2
-0---------------0------------0---------------0------------------|
-----------------------------------------------------------------|
-----------------------------------------------------------------|

---------0---------------0---------------0---------------0--------|
---3-------3---3---3-------3---3---3-------3---3---3-------3------|
-----0---------------0---------------0---------------0---------0--| x1
-------------------------------------------------2-----2-----2----|
-3-----3-----3---2-----2-----2---0-----0-----0--------------------|
------------------------------------------------------------------|

---------0h2-------------0h2----------0h2-------------0h2p0------|
-------3-----3---------3------------3-----3---------3-------3----|
---0h2---------2---0h2----------0h2---------2---0h2-----------2--|	x2
-0---------------0------------0---------------0------------------|
-----------------------------------------------------------------|
-----------------------------------------------------------------|

---------0---------------0---------------0---------------0--------|
---3-------3---3---3-------3---3---3-------3---3---3-------3------|
-----0---------------0---------------0---------------0---------0--| x1
-------------------------------------------------2-----2-----2----|
-3-----3-----3---2-----2-----2---0-----0-----0--------------------|
------------------------------------------------------------------|

---------0h2-------------0h2----------0h2-------------0h2p0------|
-------3-----3---------3------------3-----3---------3-------3----|
---0h2---------2---0h2----------0h2---------2---0h2-----------2--|	x2
-0---------------0------------0---------------0------------------|
-----------------------------------------------------------------|
-----------------------------------------------------------------|

---------0---------------0---------------0--------|
---3-------3---3---3-------3---3---3-------3---3--|
-----0---------------0---------------0------------|	x2
--------------------------------------------------|
-3-----3-----3---2-----2-----2---0-----0-----0----|
--------------------------------------------------|

---------0-------------3---------------0--------|
---3-------3---3---3-----3---3---3-------3---3--|
-----0---------------0-----0-------0------------|	x2
------------------------------------------------|
-3-----3-----3---2-------------0-----0-----0----|
------------------------------------------------|

---------0---------------0---------------0--------|
---3-------3-------3-------3---3---3-------3------|
-----0---------0-----0---------------0---------0--| x1
-2-----2-----2-------------------2-----2-----2----|
-----------------0-----0-----0--------------------|
--------------------------------------------------|

---------0h2-------------0h2----------0h2-------------0h2p0------|
-------3-----3---------3------------3-----3---------3-------3----|
---0h2---------2---0h2----------0h2---------2---0h2-----------2--|	x3
-0---------------0------------0---------------0------------------|
-----------------------------------------------------------------|
-----------------------------------------------------------------|

---------0h2p0-------------0h2p0------|
-------3-------3---------3-------3----|
---0h2-----------2---0h2-----------2--|	x1
-0-----------------0------------------|
--------------------------------------|
--------------------------------------|

---------0h2p0-------------0h2p0-------------0h2--|
-------3-------3---------3-------3---------3------|
---0h2-----------2---0h2-----------2---0h2--------|	x1
-0-----------------0-----------------0------------|
--------------------------------------------------|
--------------------------------------------------|

 D	Cadd9	G	G	D   	G	Cadd9	Cadd9
-2------3-------3-------3-------2---3---3-------3-------3----|
-3------3-------3-------3-------3---3---3-------3-------3----|
-2------0-------0-------0-------2---2---0-------0-------0----|	x3
-0------2-------0-------0-------0---3---0-------2-------2----|
--------3-------2-------2---------------2-----0h3-------3----|
----------------3-------3-------------0h3--------------------|

 D	D	Em                    C	      G	      D	      Em
-2------2-------0---0-0-0---0-0-0-0---0-------3-------2-------0---0-0-0------|
-3------3-------0---0-0-0---0-0-0-0---1-------3-------3-------0---0-0-0------|
-2------2-------0---0-0-0---0-0-0-0---0-------0-------2-------0---0-0-0------|
-0------0-------0h2-2-2-0h2-2-2-2-2---2-------0-------0-------0h2-2-2-0h2----|
----------------0h2-2-2-0h2-2-2-2-2---3-------2---------------0h2-2-2-0h2----|
----------------0---0-0-0---0-0-0-0-----------3---------------0---0-0-0------|

^continued from above^
 	  C	  D       C       C
----^12-0-0-------0-------0-------0--|
^12-^12-0-1------s3-------1-------1--|
^12-------0-------0-------0-------0--| x1
----------2------s4-------2-------2--|
----------3------s5-------3-------3--|
-------------------------------------|

 D	Cadd9	G	G	D   	G	Cadd9	Cadd9
-2------3-------3-------3-------2---3---3-------3-------3----|
-3------3-------3-------3-------3---3---3-------3-------3----|
-2------0-------0-------0-------2---2---0-------0-------0----|	x2
-0------2-------0-------0-------0---3---0-------2-------2----|
--------3-------2-------2---------------2-----0h3-------3----|
----------------3-------3-------------0h3--------------------|

 D	D	Em			C	G	D
-2------2-------0---0-0-0---0-0-0-0-----0-------3-------2--|
-3------3-------0---0-0-0---0-0-0-0-----1-------3-------3--|
-2------2-------0---0-0-0---0-0-0-0-----0-------0-------2--|	x1
-0------0-------0h2-2-2-0h2-2-2-2-2-----2-------0-------0--|
----------------0h2-2-2-0h2-2-2-2-2-----3-------2----------|
----------------0---0-0-0---0-0-0-0-------------3----------|

 Em		       C	Em			C	G	D
-0---0-0-0---0-0-0-0---0--------0---0-0-0---0-0-0-0-----0-------3-------2--|
-0---0-0-0---0-0-0-0---1--------0---0-0-0---0-0-0-0-----1-------3-------3--|
-0---0-0-0---0-0-0-0---0--------0---0-0-0---0-0-0-0-----0-------0-------2--|	x1
-0h2-2-2-0h2-2-2-2-2---2--------0h2-2-2-0h2-2-2-2-2-----2-------0-------0--|
-0h2-2-2-0h2-2-2-2-2---3--------0h2-2-2-0h2-2-2-2-2-----3-------2----------|
-0---0-0-0---0-0-0-0------------0---0-0-0---0-0-0-0-------------3----------|

 Em		       C	D       C	C	D   	C	C	D	C   C 
-0---0-0-0-------^12-0-0--------0-------0-------0-------0---5---0-------0-------0---5---0-------0--|
-0---0-0-0---^12-^12-0-1-------s3-------1-------1------s3---3---1-------1------s3---3---1-------1--|
-0---0-0-0---^12-------0--------0-------0-------0-------0---0---0-------0-------0---0---0-------0--|
-0h2-2-2-0h2-----------2-------s4-------2-----0h2------s4---4---2-----0h2------s4---4---2-------2--|
-0h2-2-2-0h2-----------3-------s5-------3-------3------s5---5---3-------3------s5---5---3-------3--|
-0---0-0-0-----------------------------------------------------------------------------------------|
	x1

 D	Cadd9	G	G	D   	G	Cadd9	Cadd9
-2------3-------3-------3-------2---3---3-------3-------3----|
-3------3-------3-------3-------3---3---3-------3-------3----|
-2------0-------0-------0-------2---2---0-------0-------0----|	x2
-0------2-------0-------0-------0---3---0-------2-------2----|
--------3-------2-------2---------------2-----0h3-------3----|
----------------3-------3-------------0h3--------------------|

 D	D	Em				C	G	D
-2------2-------0---0-0-0---0-0-0-0-----^12-0---0-------3-------2--|
-3------3-------0---0-0-0---0-0-0-0-^12-^12-0---1-------3-------3--|
-2------2-------0---0-0-0---0-0-0-0-^12---------0-------0-------2--| x1
-0------0-------0h2-2-2-0h2-2-2-2-2-------------2-------0-------0--|
----------------0h2-2-2-0h2-2-2-2-2-----------0h3-------2----------|
----------------0---0-0-0---0-0-0-0---------------------3----------|

 Em		                C       G       D	Em			C	D C
-0---0-0-0---0-0-0-0-^12--^5----0-------3-------2-------0---0-0-0---0-0-0-0-----0-------0-------0--|
-0---0-0-0---0-0-0-0-^12--^5----1-------3-------3-------0---0-0-0---0-0-0-0-----1------s3-------1--|
-0---0-0-0---0-0-0-0-^12--^5----0-------0-------2-------0---0-0-0---0-0-0-0-----0-------0-------0--|
-0h2-2-2-0h2-2-2-2-2------------2-------0-------0-------0h2-2-2-0h2-2-2-2-2-----2------s4-------2--|
-0h2-2-2-0h2-2-2-2-2----------0h3-------2---------------0h2-2-2-0h2-2-2-2-2---0h3------s5-------3--|
-0---0-0-0---0-0-0-0--------------------3---------------0---0-0-0---0-0-0-0------------------------|
	x1

   C	   D	   C	   C	   D	   C	   C	   D	   C
---0------s5-------3-------3------s5-------3-------3------s5-------3--|
---1------s3-------1-------1------s3-------1-------1------s3-------1--|
---0-------0-------0-------0-------0-------0-------0-------0-------0--|	x1
-0h2------s4-------2-----0h2------s4-------2-----0h2------s4-------2--|
---3------s5-------3-------3------s5-------3-------3------s5-------3--|
----------------------------------------------------------------------|

 Cadd9	Cadd9	Cadd9		G
-3------3-------3---------------3--|
-3------3-------3---------------3--|
-0------0-------0---------------0--|	x1
-2------2-------2---------------0--|
-3------3-------3--2h3p2p0h2p0--2--|
--------------------------------3--|

            
            
Suggest correction
Creating personal tab
Creating personal tab
You can edit any tab online and save it as your Personal.

You can edit, replace or remove any tab part or add personal notes – all changes will be seen only by you.

Personal tabs can be accessed anytime from any device, even offline.
Learn more »
comments
print report bad tab
guest
You may want to rate the tab now too:
select rating
Wanna post a correction for this tab? Suggest correction