Oops, an error
Loading. Please wait.
We have an official Stupify tab made by UG professional guitarists. Check out the tab »
×

Stupify tab

1,435 views 12 this week
1 commentread comment
1 2 3 4 5
x 4
add to favorites
×
Save as Personal and add changes to this tab that will be seen only by you. Learn more ›
×
You can save this tab as Personal to edit and correct it or add notes. All changes will be seen only by you. Learn more »
launch autoscroll
font size
0
reset
how to read this tab
guitar tuner
backing track
0:00
0:00
edit
Autoscroll
slow
fast
+/-
esc
set tempo
stop
About this tab version
Based on Disturbed member Dan's Donegan youtube lesson. Was this info helpful? Yes No
Artist: Disturbed.
Song: Stupify.
Album: The Sickness(2000).
Tabbed By: szejk

*Based on Disturbed member Dan's Donegan youtube lesson: https://www.youtube.com/watch?v=CT3nCUJuM6o

Tuning: Drop C#: Db Ab Db Gb Bb Eb

INTRO\CHORUS

eb|---------------------------------|---------------------------------|
Bb|-------0------3------------------|-------0------3------------------|
Gb|-------0------2------------------|-------0------2------------------|
Db|-------0------0------------------|-------0------0------------------|
Ab|--/8----------0------------------|--/8----------0----------3-6-----|
Db|--/8------0-0-0----0-0-0-3-0-0-3-|--/8------0-0-0----0-3-0-----0-3-|
          pm ...      .....   ...           pm ...      .....     ...

eb|---------------------------------|---------------------------------|
Bb|-------0------3------------------|-------0------3------------------|
Gb|-------0------2------------------|-------0------2------------------|
Db|-------0------0------------------|-------0------0------------------|
Ab|--/8----------0------------------|--/8----------0----------3-------|
Db|--/8------0-0-0----0-0-0-3-0-0-3-|--/8------0-0-0----0-3-0---3-3-3-|
          pm ...      .....   ...           pm ...      .............

eb|---------------------------------|---------------------------------|
Bb|-------0------3------------------|-------0------3------------------|
Gb|-------0------2------------------|-------0------2------------------|
Db|-------0------0------------------|-------0------0------------------|
Ab|--/8----------0------------------|--/8----------0----------3-6-----|
Db|--/8------0-0-0----0-0-0-3-0-0-3-|--/8------0-0-0----0-3-0-----0-3-|
          pm ...      .....   ...           pm ...      .....     ...

eb|---------------------------------|---------------------------------|
Bb|-------0------3------------------|-------0------3------------------|
Gb|-------0------2------------------|-------0------2------------------|
Db|-------0------0------------------|-------0------0------------------|
Ab|--/8----------0------------------|--/8----------0------------------|
Db|--/8------0-0-0----0-0-0-3-0-0-3-|--/8------0-0-0----0-0-0-0-0-0---|
          pm ...      .....   ...           pm ...      ...........
         

VERSE

Play x 6 
eb|---------------------------8-----|---------------------------------|
Bb|----------------------11---------|--------------------------10-----|
Gb|-----------------10--------------|----------------------8----------|
Db|---------------------------------|------------------7--------------|
Ab|--0---0---0----------------------|--0---0---0----------------------|
Db|--0---0---0----------------------|--0---0---0----------------------|
  pm .........                      pm .........

eb|---------------------------8-----|---------------------------------|
Bb|----------------------11---------|-------------10-10-10-10-10-10-10|
Gb|-----------------10--------------|-------------8--8--8--8--8--8--8-|
Db|---------------------------------|-------------7--7--7--7--7--7--7-|
Ab|--0---0---0----------------------|--0---0---0----------------------|
Db|--0---0---0----------------------|--0---0---0----------------------|
  pm .........                      pm .........


CHORUS (as above)

BREAK

Play x 2
eb|---------------------------------|---------------------------------|
Bb|---------------------------------|---------------------------------|
Gb|---------------------------------|---------------------------------|
Db|---------------------------------|---------------------------------|
Ab|--0---0---0----------------------|--0---0---0----------------------|
Db|--0---0---0----------------------|--0---0---0----------------------|
  pm .........                      pm .........

VERSE (as above)

BERAK 2
    Keep ringing for 4 bars                           end of 4th bar
eb|---------------------------------|---------------------------------|
Bb|---------------------------------|---------------------------------|
Gb|---------------------------------|---------------------------------|
Db|--0------------------------------|---------------------------------|
Ab|--0------------------------------|----------------------------X-X--|
Db|--0------------------------------|----------------------------X-X--|
     

   Play 3 times                      then
eb|---------------------------------|---------------------------------|
Bb|---------------------------------|-------------10-10-10-10-10-10-10|
Gb|---------------------------------|-------------8--8--8--8--8--8--8-|
Db|---------------------------------|-------------7--7--7--7--7--7--7-|
Ab|--0-------0-------0--------0-----|--0---0---0----------------------|
Db|--0-------0-------0--------0-----|--0---0---0----------------------|
  pm ..........................     pm .........
     

CHORUS

BREAK 3

   Play this bar 7 times(Sitar effect) then
eb|---------------------------------|---------------------------------|
Bb|---------------------------------|---------------------------------|
Gb|--------7-----------8----------8-|---------7-----------------------|
Db|--0-----------0-----------0------|--0--------------0---------------|
Ab|---------------------------------|---------------------------------|
Db|---------------------------------|---------------------------------|
     

BREAK 4 
eb|---------------------------------|---------------------------------|
Bb|--3------------------------3-----|-------------3-------------------|
Gb|--2------------------------2-----|-------------2-------------------|
Db|--0------------------------0-----|-------------0-------------------|
Ab|--0-----------3------------0-----|--3----------0----------1---1----|
Db|--0-----------3------------0-----|--3----------0----------1---1----|

eb|---------------------------------|---------------------------------|
Bb|--3------------------------3-----|-------------3-------------------|
Gb|--2------------------------2-----|-------------2-------------------|
Db|--0------------------------0-----|-------------0-------------------|
Ab|--0-----------3------------0-----|--3----------0--------------6\---|
Db|--0-----------3------------0-----|--3----------0--------------6\---|
   Play x 2
eb|---------------------------------|---------------------------------|
Bb|--3------------------------3-----|-------------3-------------------|
Gb|--2------------------------2-----|-------------2-------------------|
Db|--0------------------------0-----|-------------0-------------------|
Ab|--0-----------3------------0-----|--3----------0----------1---1----|
Db|--0-----------3------------0-----|--3----------0----------1---1----|


OUTRO

   Play x 3 
eb|---------------------------------|---------------------------------|
Bb|-------0------3------------------|-------0------3------------------|
Gb|-------0------2----0-------------|-------0------2----0-------------|
Db|-------0------0----0-------------|-------0------0----0-------------|
Ab|--/8----------0----0-------------|--1-----------0----0-------------|
Db|--/8------0-0-0------0-0-0-0-0-0-|--1-------0-0-0------0-0-0-0-0-0-|
          pm ...        ...........         pm ...        ...........

eb|---------------------------------|---------------------------------|
Bb|-------0------3------------------|---------------------------------|
Gb|-------0------2----0-------------|---------------------------------|
Db|-------0------0----0-------------|---------------------------------|
Ab|--/8----------0----0-------------|--1-----------1-----------1------|
Db|--/8------0-0-0------0-0-0-0-0-0-|--1--0-0-0-0--1--0-0-0-0--1--0-0-|
          pm ...        ...........    pm .......     .......     ...
   Play x 4
eb|---------------------------------|---------------------------------|
Bb|---------------------------------|-------0------3------------------|
Gb|---------------------------------|-------0------2------------------|
Db|---------------------------------|-------0------0------------------|
Ab|--0-0---0-0---0-0--------3-6-----|--1-----------0----------3-6-----|
Db|--0-0---0-0---0-0--0-3-0-----0-3-|--1-------0-0-0----0-3-0-----0-3-|
  pm ......................     ...         pm ...      .....     ...

    Play x 3
eb|---------------------------------|---------------------------------|
Bb|---------------------------------|---------------------------------|
Gb|---------------------------------|---------------------------------|
Db|---------------------------------|---------------------------------|
Ab|--0-0---0-0---0-0--------3-6-----|--0-0---0-0---0-0--------3-6-----|
Db|--0-0---0-0---0-0--0-3-0-----0-3-|--0-0---0-0---0-0--0-3-0-----0-3-|
  pm ......................     ... pm ......................     ...             

eb|---------------------------------|---------------------------------|
Bb|---------------------------------|---------------------------------|
Gb|---------------------------------|---------------------------------|
Db|---------------------------------|---------------------------------|
Ab|--0-0---0-0---0-0--------3-6-----|--0-0---------0-0----------------|
Db|--0-0---0-0---0-0--0-3-0-----0-3-|--0-0---------0-0----------------|
  pm ......................     ... pm ...............                            


            
            
Suggest correction
Creating personal tab
Creating personal tab
You can edit any tab online and save it as your Personal.

You can edit, replace or remove any tab part or add personal notes – all changes will be seen only by you.

Personal tabs can be accessed anytime from any device, even offline.
Learn more »
comments
print report bad tab
1 comment total.
0 reply
Hajiki 84 Sep 11, 2015 12:40 PM

Finally a correct tab of this lol. Only took the internet like 15 years but dammit it happened!

guest
You may want to rate the tab now too:
select rating
Wanna post a correction for this tab? Suggest correction