Oops, an error
Loading. Please wait.

Two Worlds bass

version 1
version 1

Whole song

Interactive

119 views 1 this week
no commentswrite comment
1 2 3 4 5
3 more votes to show rating
add to favorites
×
Save as Personal and add changes to this tab that will be seen only by you. Learn more ›
×
You can save this tab as Personal to edit and correct it or add notes. All changes will be seen only by you. Learn more »
launch autoscroll
font size
0
reset
guitar tuner
edit
Autoscroll
slow
fast
+/-
esc
set tempo
stop
disturbed: two worlds                                    

tuneing: F#
         C#
         G#
         C#


   intro                                                      
F#|----|----|----|----|----|----|--------------------|--------------------|
C#|----|----|----|----|----|----|--------------------|--------------------|
G#|----|----|----|----|----|----|--------------------|--5--5--5--------6--|
C#|----|----|----|----|----|----|--1--1--1--3--3--1--|-----------3--3-----|

  
|-----------------------|--------------------|--------------------|
|-----------------------|--------------------|--------------------|
|--5-----3--5-----5--3--|--5--------5--3--6--|-----5--3--5--------|
|--------------0--------|-----0--0-----------|--0-----------0--0--|


--------------------|--------------------|--------------------|
--5--3--5--5--3--6--|--5--3--5-----5--3--|--5--------5--3--6--|
--------------------|-----------0--------|-----0--0-----------|

                                         
--------------------|--------------------|
--------------------|--------------------|
--------------------|--5--5--5--------6--|
--1--1--1--3--3--1--|-----------3--3-----|

 verse                 
|-----------------------|--------------------|--------------------|--------------------|
|-----------------------|--------------------|--------------------|--------------------|
|-----------------------|--------------------|--------------------|-----3--3--5--5-----|
|--0--------0-----0--0--|--1--1--0--3--3--1--|--3-----3-----3--3--|--3--------------3--|


--------------------|--------------------|--------------------|
--------------------|--------------------|--------------------|
--------------------|--------------------|--------------------|
--8-----8-----8--8--|--8-----8-----8--8--|--7-----7-----7--7--|


--------------------|--------------------|--------------------|
--------------------|--------------------|--------------------|
--------------------|--------------------|--------------------|
--7--7--7--3--3--3--|--0-----0-----0--0--|--1--1--0--3--3--1--|

  
--------------------|--------------------|--------------------|
--------------------|--------------------|--------------------|
--------------------|-----3--3--5--5-----|--------------------|
--3-----3-----3--3--|--3--------------3--|--8-----8-----8--8--|

 
---------------------|--------------------|----------------------|
---------------------|--------------------|----------------------|
---------------------|--------------------|----------------------|
--12-----8-----8--8--|--7-----7-----7--7--|--7--7--7--7--10--10--|


pre chorus                                                             
----------------------------|--------------------|---------------------|
----------------------------|--------------------|---------------------|
----------------------------|--------------------|---------------------|
--0---------0-0-0--0--0--0--|-----1--1--1--0--0--|--0--0-0-0--0--0--0--|

 
--------------------|------------------|-------------------|------------------|
--------------------|------------------|-------------------|------------------|
--------------------|--0----1----------|-------------------|--0----1----------|
-----1--1--1--0--0--|------------0--0--|--5----3--0--3--0--|------------0--0--|

  
------------------|------------------|-------------------|------------------|
------------------|------------------|-------------------|------------------|
------------------|--0----1----------|-------------------|--0----1----------|
--5----3----5--5--|------------0--0--|--5----3--0--3--0--|------------0--0--|

                                    
----------------------|
----------------------|
----------------------|
--5----7--10--10--10--|

 chorus                                      
|------------------------|--------------------|
|------------------------|--------------------|
|------------------------|--------------------|
|--0------0--0-----0-----|--0-----0-----0--0--|


--------------------|--------------------|--------------------|
--------------------|--------------------|--------------------|
--------------------|--------------------|--------------------|
--0--0--0-----0-----|--0-----1-----3--1--|--0--0--0-----0-----|


--------------------|--------------------|--------------------|
--------------------|--------------------|--------------------|
--------------------|--5--3--5--3--------|-----------5--3--6--|
--0-----0-----0--0--|--------------1-----|--0--3--3-----------|


--------------------|--------------------|--------------------|
--------------------|--------------------|--------------------|
--------------------|--------------------|--------------------|
--0--0--0-----0-----|--0-----0-----0--0--|--0--0--0-----0-----|

 
--------------------|--------------------|--------------------|
--------------------|--------------------|--------------------|
--------------------|--------------------|--------------------|
--0-----1-----3--1--|--0--0--0-----0-----|--0-----0-----0--0--|

 
--------------------|---------------|---------------------|--------------------|
--------------------|---------------|---------------------|--------------------|
--5--3--5--3--------|---------------|---------------------|--------------------|
--------------1-----|---------------|--0--0-0-0--0--0--0--|-----1--1--1--0--0--|

               
---------------------|--------------------|
---------------------|--------------------|
---------------------|--------------------|
--0--0-0-0--0--0--0--|-----1--1--1--0--0--|

verse

pre chorus

chorus

 solo                     
|--------------------------|------------------------|
|--------------------------|------------------------|
|--------------------------|------------------------|
|--0----0-0-0-0-3--1-1-1-1-|--1--0-0-0-0-3--1-1-1-1-|

 
------------------------|------------------------|
------------------------|------------------------|
------------------------|------------------------|
--0--0-0-0-0-3--1-1-1-1-|--1--0-0-0-0-3--1-1-1-1-|

 
------------------------|------------------------|------------------------|
------------------------|------------------------|------------------------|
------------------------|------------------------|------------------------|
--0--0-0-0-0-3--1-1-1-1-|--1--0-0-0-0-3--1-1-1-1-|--0--0-0-0-0-3--1-1-1-1-|

 
------------------------|------------------------|------------------------|
------------------------|------------------------|------------------------|
------------------------|------------------------|------------------------|
--1--0-0-0-0-3--1-1-1-1-|--0--0-0-0-0-3--1-1-1-1-|--1--0-0-0-0-3--1-1-1-1-|

------------------------|------------------------|------------------------|
------------------------|------------------------|------------------------|
------------------------|------------------------|------------------------|
--0--0-0-0-0-3--1-1-1-1-|--1--0-0-0-0-3--1-1-1-1-|--0--0-0-0-0-3--1-1-1-1-|

 
------------------------|------------------------|------------------------|
------------------------|------------------------|------------------------|
------------------------|------------------------|------------------------|
--1--0-0-0-0-3--1-1-1-1-|--0--0-0-0-0-3--1-1-1-1-|--1--0-0-0-0-3--1-1-1-1-|


interlude   
----------------------------|--------------------|---------------------|
----------------------------|--------------------|---------------------|
----------------------------|--------------------|---------------------|
--0---------0-0-0--0--0--0--|-----1--1--1--0--0--|--0--0-0-0--0--0--0--|

  
--------------------|---------------------|--------------------|
--------------------|---------------------|--------------------|
--------------------|---------------------|--------------------|
-----1--1--1--0--0--|--0--0-0-0--0--0--0--|-----1--1--1--0--0--|


---------------------|--------------------|---------------------|
---------------------|--------------------|---------------------|
---------------------|--------------------|---------------------|
--0--0-0-0--0--0--0--|-----1--1--1--0--0--|--0--0-0-0--0--0--0--|

 
--------------------|---------------------|--------------------|
--------------------|---------------------|--------------------|
--------------------|---------------------|--------------------|
-----1--1--1--0--0--|--0--0-0-0--0--0--0--|-----1--1--1--0--0--|


---------------------|--------------------|---------------------|
---------------------|--------------------|---------------------|
---------------------|--------------------|---------------------|
--0--0-0-0--0--0--0--|-----1--1--1--0--0--|--0--0-0-0--0--0--0--|

 
--------------------|---------------------|--------------------|
--------------------|---------------------|--------------------|
--------------------|---------------------|--------------------|
-----1--1--1--0--0--|--0--0-0-0--0--0--0--|-----1--1--1--0--0--|

                
---------------------|--------------------|
---------------------|--------------------|
---------------------|--------------------|
--0--0-0-0--0--0--0--|-----1--3--1--0--0--|

chorus
------------------------|--------------------|--------------------|--------------------|
------------------------|--------------------|--------------------|--------------------|
------------------------|--------------------|--5--3--5--3--------|-----------5--3--6--|
--0------0--0-----0-----|--0-----0-----0--0--|--------------1-----|--0--3--3-----------|


--------------------|--------------------|--------------------|
--------------------|--------------------|--------------------|
--------------------|--------------------|--5--3--5--3--------|
--0--0--0-----0-----|--0-----0-----0--0--|--------------1-----|


--------------------|--------------------|--------------------|
--------------------|--------------------|--------------------|
-----------5--3--6--|--------------------|--------------------|
--0--3--3-----------|--0--0--0-----0-----|--0-----0-----0--0--|


--------------------|--------------------|--------------------|
--------------------|--------------------|--------------------|
--5--3--5--3--------|-----------5--3--6--|--------------------|
--------------1-----|--0--3--3-----------|--0--0--0-----0-----|

     
--------------------|--------------------|--------------------|
--------------------|--------------------|--------------------|
--------------------|--5--3--5--3--------|-----------5--3--6--|
--0-----0-----0--0--|--------------1-----|--0--3--3-----------|


            
            
Suggest correction
Creating personal tab
Creating personal tab
You can edit any tab online and save it as your Personal.

You can edit, replace or remove any tab part or add personal notes – all changes will be seen only by you.

Personal tabs can be accessed anytime from any device, even offline.
Learn more »
Give kudos to tab author, rate the tab!
1 2 3 4 5
comments
print report bad tab
guest
You may want to rate the tab now too:
select rating
Wanna post a correction for this tab? Suggest correction