Oops, an error
Loading. Please wait.
We have an official Violence Fetish tab made by UG professional guitarists. Check out the tab »
×
2,221 views 3 this week
no commentswrite comment
1 2 3 4 5
2 more votes to show rating
add to favorites
×
Save as Personal and add changes to this tab that will be seen only by you. Learn more ›
×
You can save this tab as Personal to edit and correct it or add notes. All changes will be seen only by you. Learn more »
launch autoscroll
font size
0
reset
how to read this tab
guitar tuner
edit
Autoscroll
slow
fast
+/-
esc
set tempo
stop
Author
Difficulty
--------------------   NOTE: A "!" after a note means the note sounds two 
  \ VIOLENCE   \           : octaves higher by using Whammy Pedal.
   \    FETISH  \
--------------------
Dropped D Tunning:                         Words and Music by DISTURBED
Tune down 1/2 step:              
(6)=Db (3)=Gb
(5)=Ab (2)=Bb
(4)=Db (1)=Eb
  
        4/4
        Moderately tempo = 90
Intro:

Gtr.1
   D5
   W        +W         +W                     +W
||--------|----------|-----------------------|-------------------------|
||--------|----------|o----------------------|------------------------o|
||--------|----------|-----------------------|-------------------------|
||-0------|-(0)------|--(0)------------------|-(0)---------------------|
||-0------|-(0)------|o-(0)------------------|-(0)--------------------o|
||-0------|-(0)------|--(0)------------------|-(0)---------------------|

Gtr.2
                       8va - - - - - - - - - - - - - - - - - - - - -| 4x
   W        W            E.  E.  E.  E.  Q      E.  E.  E.  E.  E  E
||--------|----------|------13------12-------|-----13------12-----16---|
||--------|----------|o-15------15------15---|-15------15------15-----o|
||--------|----------|-----------------------|-------------------------|
||--------|----------|-----------------------|-------------------------|
||--------|----------|o----------------------|------------------------o|
||--------|----------|-----------------------|-------------------------|

Gtr.1
 Rythm Fig 1
  D5 Eb(b5)  D5        Eb(b5)   D5 Eb(b5)  D5    N.C.
                        (15ma)                      (15ma) (15ma)
                           12                          12    12
  E.  S +E   E  +S  E.  E E|    E.  S +E   E  +S  E  S S|E  E |
|--------------------------/--|-------------------------|-----|--|
|-------------------------/---|-------------------------|-----|--|
|-----8-(8)-------------8-8!--|-----8-(8)---------------/-----/--|
|-----7-(7)-------------7-----|-----7-(7)--------------/-----/---|
|-----6-(6)-------------6-----|-----6-(6)------------8-8!-8--8!--|
|-0----------0--(0)-0---------|-0----------0--(0)-0--------------|

                                                     end Rythm Fig 1
  D5 Eb(b5)  D5        Eb(b5)   D5 Eb(b5)  D5    N.C.
                        (15ma)                      (15ma) (15ma)
                           12                          12    12
  E.  S +E   E  +S  E.  E E|    E.  S +E   E  +S  E  S S|E  E |
|--------------------------/--|-------------------------|-----|--|
|-------------------------/---|-------------------------|-----|--|
|-----8-(8)-------------8-8!--|-----8-(8)---------------/-----/--|
|-----7-(7)-------------7-----|-----7-(7)--------------/-----/---|
|-----6-(6)-------------6-----|-----6-(6)------------8-8!-8--8!--|
|-0----------0--(0)-0---------|-0----------0--(0)-0--------------|


Verse:
Gtr.1
  D5
  W         +W         +W         +H    +Q Q
|---------|----------|----------|------------|
|o--------|----------|----------|------------| Second time through use fill 1
|---------|----------|----------|------------| from the third measure.
|--0------|-(0)------|-(0)------|-(0)---(0)/-| 
|o-0------|-(0)------|-(0)------|-(0)---(0)/-| See bottom for fills.
|--0------|-(0)------|-(0)------|-(0)---(0)/-|

  D5  Eb(b5) D5     Eb(b5)D5  D5  Eb(b5) D5    Eb(b5)D5  
  PM         PM- - - - - - - - |           
  E.  S +E   E  +S  E.  E E   E.  S +E  E  +S  E.  S S S S
|---------------------------|------------------------------|
|---------------------------|------------------------------|
|-----8-(8)-----------------|-----8-(8)--------------------|
|-----7-(7)-----------------|-----7-(7)--------------------|
|-----6-(6)-----------------|-----6-(6)--------------------|
|-0----------0--(0)-0---1-0-|-0---------0--(0)-0---1-0-0-0-|

  D5  Eb(b5) D5     Eb(b5)D5  D5  Eb(b5) D5    Eb(b5)D5  
  PM         PM- - - - - - - - |           
  E.  S +E   E  +S  E.  E E   E.  S +E  E  +S  E.  S S S S
|---------------------------|------------------------------|
|---------------------------|------------------------------|
|-----8-(8)-----------------|-----8-(8)--------------------|
|-----7-(7)-----------------|-----7-(7)--------------------|
|-----6-(6)-----------------|-----6-(6)--------------------|
|-0----------0--(0)-0---1-0-|-0---------0--(0)-0---1-0-0-0-|

Pre-Chorus:
Rythm Fig 2
  Hold- - -| Hold- - -| Hold-|  Hold- - -| Hold- - - - - -|
  E.  S +E   E  +S  E.  E  E    E.  S +E   E  +S  E.  E  E
|-----0-(0)---------0------0--|-----0-(0)---------0------0--|
|-----------------------------|-----------------------------|
|-----------------------------|-----------------------------|
|-----------------------------|-----------------------------|
|-----------------------------|-1----------0--(0)-----0-----|
|-0----------2--(2)-----2-----|-----------------------------|

                                             end Rythm Fig 2
  Hold- - -| Hold- - -| Hold-|  Hold- - -| Hold- - - - - -|
  E.  S +E   E  +S  E.  E  E    E.  S +E   E  +S  E.  E  E
|-----0-(0)---------0------0--|-----0-(0)---------0------0--|
|-----------------------------|-----------------------------|
|-----------------------------|-----------------------------|
|-----------------------------|-----------------------------|
|-----------------------2-----|-1----------0--(0)-----0-----|
|-0----------2--(2)-----------|-----------------------------|

Chorus:
  D5 Eb(b5)  D5        Eb(b5)   D5 Eb(b5)  D5    N.C.
                        (15ma)                      (15ma) (15ma)
                           12                          12    12
  E.  S +E   E  +S  E.  E E|    E.  S +E   E  +S  E  S S|E  E |
|--------------------------/--|-------------------------|-----|--|
|-------------------------/---|-------------------------|-----|--|
|-----8-(8)-------------8-8!--|-----8-(8)---------------/-----/--|
|-----7-(7)-------------7-----|-----7-(7)--------------/-----/---|
|-----6-(6)-------------6-----|-----6-(6)------------8-8!-8--8!--|
|-0----------0--(0)-0---------|-0----------0--(0)-0--------------|

                                                     
  D5 Eb(b5)  D5        Eb(b5)   D5 Eb(b5)  D5    N.C.
                        (15ma)                      (15ma) (15ma)
                           12                          12    12
  E.  S +E   E  +S  E.  E E|    E.  S +E   E  +S  E  S S|E  E |
|--------------------------/--|-------------------------|-----|--|
|-------------------------/---|-------------------------|-----|--|
|-----8-(8)-------------8-8!--|-----8-(8)---------------/-----/--|
|-----7-(7)-------------7-----|-----7-(7)--------------/-----/---|
|-----6-(6)-------------6-----|-----6-(6)------------8-8!-8--8!--|
|-0----------0--(0)-0---------|-0----------0--(0)-0--------------|


  D5 Eb(b5)  D5        Eb(b5)   D5 Eb(b5)  D5    N.C.
                        (15ma)                      (15ma) (15ma)
                           12                          12    12
  E.  S +E   E  +S  E.  E E|    E.  S +E   E  +S  E  S S|E  E |
|--------------------------/--|-------------------------|-----|--|
|-------------------------/---|-------------------------|-----|--|
|-----8-(8)-------------8-8!--|-----8-(8)---------------/-----/--|
|-----7-(7)-------------7-----|-----7-(7)--------------/-----/---|
|-----6-(6)-------------6-----|-----6-(6)------------8-8!-8--8!--|
|-0----------0--(0)-0---------|-0----------0--(0)-0--------------|
                               _________  
                              |1.                      
  D5 Eb(b5)  D5        Eb(b5)   D5 Eb(b5)  D5    N.C.
                        (15ma)                      (15ma) (15ma)
                           12                          12    12
  E.  S +E   E  +S  E.  E E|    E.  S +E   E  +S  E  S S|E  E |
|--------------------------/--|-------------------------|-----|--|
|-------------------------/---|-------------------------|-----|--|
|-----8-(8)-------------8-8!--|-----8-(8)---------------/-----/--|
|-----7-(7)-------------7-----|-----7-(7)--------------/-----/---|
|-----6-(6)-------------6-----|-----6-(6)------------8-8!-8--8!--|
|-0----------0--(0)-0---------|-0----------0--(0)-0--------------|
                              _________ 
                             |2.          Bridge:
  D5                                          N.C.
                          12               PM- |
  W        +H    +H       /    W            E  E  E  S S S S S S
|--------|---------------/---|-----------|-----------------------|
|--------|--------------/---o|-----------|o----------------------|
|--------|-------------/-----|-----------|-----------------------|
|-0------|-(0)--------/------|-----------|-----------------------|
|-0------|-(0)-------/------o|-----------|o-------5----6---7---8-|
|-0------|-(0)---(0)/--------|-----------|--0--0-----0---0---0---|
                  ^W/Whammy Pedal

                           D5         Eb5 E5  F5  D5         Eb5 E5  F5    
 PM- |
  E  E  E  S S S S S S     E  E  E  S S S S S S   E  E  E  S S S S S S 4x
|-----------------------|-----------------------|-----------------------|
|----------------------o|o----------------------|----------------------o|
|-----------------------|-----------------------|-----------------------|
|-----------------------|--------7--------------|-------7---------------|
|-------5----6---7---8-o|o-------5----1---2---3-|-------5----1---2---3-o|
|-0--0-----0---0---0----|--0--0-----0-1-0-2-0-3-|-0--0-----0-1-0-2-0-3--|


Pre-Chorus:

  Hold- - -| Hold- - -| Hold-|  Hold- - -| Hold- - - - - -|
  E.  S +E   E  +S  E.  E  E    E.  S +E   E  +S  E.  E  E
|-----0-(0)---------0------0--|-----0-(0)---------0------0--|
|-----------------------------|-----------------------------|
|-----------------------------|-----------------------------|
|-----------------------------|-----------------------------|
|-----------------------------|-1----------0--(0)-----0-----|
|-0----------2--(2)-----2-----|-----------------------------|


  Hold- - -| Hold- - -| Hold-|  Hold- - -| Hold- - -| Harm-|
  E.  S +E   E  +S  E.  E  E    E.  S +E   E  +S  E.  S S S S
|-----0-(0)---------0------0--|-----0-(0)---------0-----------|
|-----------------------------|-------------------------------|
|-----------------------------|-----------------------0-0-0---|
|-----------------------------|-------------------------------|
|-----------------------2-----|-1----------0--(0)-------------|
|-0----------2--(2)-----------|-------------------------------|

Chorus:
  D5 Eb(b5)  D5        Eb(b5)   D5 Eb(b5)  D5    N.C.
                        (15ma)                      (15ma) (15ma)
                           12                          12    12
  E.  S +E   E  +S  E.  E E|    E.  S +E   E  +S  E  S S|E  E |
|--------------------------/--|-------------------------|-----|--|
|-------------------------/---|-------------------------|-----|--|
|-----8-(8)-------------8-8!--|-----8-(8)---------------/-----/--|
|-----7-(7)-------------7-----|-----7-(7)--------------/-----/---|
|-----6-(6)-------------6-----|-----6-(6)------------8-8!-8--8!--|
|-0----------0--(0)-0---------|-0----------0--(0)-0--------------|

                                                     
  D5 Eb(b5)  D5        Eb(b5)   D5 Eb(b5)  D5    N.C.
                        (15ma)                      (15ma) (15ma)
                           12                          12    12
  E.  S +E   E  +S  E.  E E|    E.  S +E   E  +S  E  S S|E  E |
|--------------------------/--|-------------------------|-----|--|
|-------------------------/---|-------------------------|-----|--|
|-----8-(8)-------------8-8!--|-----8-(8)---------------/-----/--|
|-----7-(7)-------------7-----|-----7-(7)--------------/-----/---|
|-----6-(6)-------------6-----|-----6-(6)------------8-8!-8--8!--|
|-0----------0--(0)-0---------|-0----------0--(0)-0--------------|


  D5 Eb(b5)  D5        Eb(b5)   D5 Eb(b5)  D5    N.C.
                        (15ma)                      (15ma) (15ma)
                           12                          12    12
  E.  S +E   E  +S  E.  E E|    E.  S +E   E  +S  E  S S|E  E |
|--------------------------/--|-------------------------|-----|--|
|-------------------------/---|-------------------------|-----|--|
|-----8-(8)-------------8-8!--|-----8-(8)---------------/-----/--|
|-----7-(7)-------------7-----|-----7-(7)--------------/-----/---|
|-----6-(6)-------------6-----|-----6-(6)------------8-8!-8--8!--|
|-0----------0--(0)-0---------|-0----------0--(0)-0--------------|
                                         
  D5 Eb(b5)  D5        Eb(b5)   D5 Eb(b5)  D5    N.C.
                        (15ma)                      (15ma) (15ma)
                           12                          12    12
  E.  S +E   E  +S  E.  E E|    E.  S +E   E  +S  E  S S|E  E |
|--------------------------/--|-------------------------|-----|--|
|-------------------------/---|-------------------------|-----|--|
|-----8-(8)-------------8-8!--|-----8-(8)---------------/-----/--|
|-----7-(7)-------------7-----|-----7-(7)--------------/-----/---|
|-----6-(6)-------------6-----|-----6-(6)------------8-8!-8--8!--|
|-0----------0--(0)-0---------|-0----------0--(0)-0--------------|
                              

***********
 Fills    
***********
Fill 1:
  <              ~~~~~
  W             +W
|---------|----------|
|---------|----------|
|---------|----------|
|---------|----------|
|-5-------|-----(5)--|
|---------|----------|

**********
 End Fills
**********

Thank you for taking the time to view my tab.  I'm pretty certain this is all correct,
e-mail me if you think I should make any changes at themagic9ball@yahoo.com.   

 -pHaKe

            
            
Suggest correction
Creating personal tab
Creating personal tab
You can edit any tab online and save it as your Personal.

You can edit, replace or remove any tab part or add personal notes – all changes will be seen only by you.

Personal tabs can be accessed anytime from any device, even offline.
Learn more »
Give kudos to tab author, rate the tab!
1 2 3 4 5
comments
print report bad tab
guest
You may want to rate the tab now too:
select rating
Wanna post a correction for this tab? Suggest correction