Oops, an error
Loading. Please wait.

Warrior tab

version 1
version 1

Whole song

Interactive

31,379 views 18 this week
1 commentread comment
1 2 3 4 5
x 12
add to favorites
×
Save as Personal and add changes to this tab that will be seen only by you. Learn more ›
×
You can save this tab as Personal to edit and correct it or add notes. All changes will be seen only by you. Learn more »
launch autoscroll
font size
0
reset
how to read this tab
guitar tuner
edit
Autoscroll
slow
fast
+/-
esc
set tempo
stop
D|----------------------------|----------------------------|
A|----------------------------|----------------------------|
F|----------------------------|----------------------------|
C|----------------------------|----------------------------|
G|--8h-5--------------6h-5----|--6h-5--------8h-5----------|
C|--------0--0--0--0----------|--------0--0--------0--0----|
                                                          
D|----------------------------|----------------------------|
A|----------------------------|----------------------------|
F|----------------------------|----------------------------|
C|----------------------------|----------------------------|
G|-----8h-5--6h-5-------------|--3h-5----------------------|
C|--0--------------0--0--0----|--------0--0--0--0--5h-6----|
                                                         
D|----------------------------|----------------------------|
A|----------------------------|----------------------------|
F|----------------------------|----------------------------|
C|----------------------------|----------------------------|
G|--8h-5--------------6h-5----|--6h-5--------8h-5----------|
C|--------0--0--0--0----------|--------0--0--------0--0----|

                                                W
D|----------------------------|----------------------------|
A|----------------------------|----------------------------|
F|----------------------------|----------------------------|
C|----------------------------|----------------------------|
G|-----8h-5--6h-5-------------|--3h-5-----------8----------|
C|--0--------------0--0--0----|--------0--0--0-------------|

D|----------------------------|----------------------------|
A|----------------------------|----------------------------|
F|----------------------------|----------------------------|
C|----------------------------|----------------------------|
G|--8h-5--------------6h-5----|--6h-5--------8h-5----------|
C|--------0--0--0--0----------|--------0--0--------0--0----|

D|----------------------------|----------------------------|
A|----------------------------|----------------------------|
F|----------------------------|----------------------------|
C|----------------------------|----------------------------|
G|-----8h-5--6h-5-------------|--3h-5----------------------|
C|--0--------------0--0--0----|--------0--0--0--0--5h-6----|

D|----------------------------|----------------------------|
A|----------------------------|----------------------------|
F|----------------------------|----------------------------|
C|--5--------5--5--5--1L------|--1--1--1--1--7-------------|
G|--5--------5--5--5--1L------|--1--1--1--1--7-------------|
C|--5--------5--5--5--1L------|--1--1--1--1--7-------------|

D|----------------------------|----------------------------|
A|----------------------------|----------------------------|
F|----------------------------|----------------------------|
C|----------------------------|----------------------------|
G|--8h-5--------------6h-5----|--6h-5--------8h-5----------|
C|--------0--0--0--0----------|--------0--0--------0--0----|

D|----------------------------|----------------------------|
A|----------------------------|----------------------------|
F|----------------------------|----------------------------|
C|----------------------------|----------------------------|
G|-----8h-5--6h-5-------------|--3h-5----------------------|
C|--0--------------0--0--0----|--------0--0--0--0--5h-6----|

D|----------------------------|----------------------------|
A|----------------------------|----------------------------|
F|----------------------------|----------------------------|
C|----------------------------|----------------------------|
G|--8h-5--------------6h-5----|--6h-5--------8h-5----------|
C|--------0--0--0--0----------|--------0--0--------0--0----|

D|----------------------------|----------------------------|
A|----------------------------|----------------------------|
F|----------------------------|----------------------------|
C|----------------------------|----------------------------|
G|-----8h-5--6h-5-------------|--3h-5-----------3--3--3----|
C|--0--------------0--0--0----|--------0--0--0--3--3--3----|

D|----------------------------|----------------------------|
A|----------------------------|----------------------------|
F|----------------------------|----------------------------|
C|----------------------------|----------------------------|
G|--8h-5--------------6h-5----|--6h-5--------8h-5----------|
C|--------0--0--0--0----------|--------0--0--------0--0----|

D|----------------------------|----------------------------|
A|----------------------------|----------------------------|
F|----------------------------|----------------------------|
C|----------------------------|----------------------------|
G|-----8h-5--6h-5-------------|--3h-5----------------------|
C|--0--------------0--0--0----|--------0--0--0--0--5h-6----|

D|----------------------------|----------------------------|
A|----------------------------|----------------------------|
F|----------------------------|----------------------------|
C|----------------------------|----------------------------|
G|--8h-5--------------6h-5----|--6h-5--------8h-5----------|
C|--------0--0--0--0----------|--------0--0--------0--0----|

D|----------------------------|----------------------------|
A|----------------------------|----------------------------|
F|----------------------------|----------------------------|
C|----------------------------|----------------------------|
G|-----8h-5--6h-5-------------|--3h-5-----------3--3--3----|
C|--0--------------0--0--0----|--------0--0--0--3--3--3----|

D|----------------------------|----------------------------|
A|----------------------------|----------------------------|
F|----------------------------|----------------------------|
C|----------------------------|----------------------------|
G|----------------------------|----------------------------|
C|--5--5--5--5--5--5--7--7----|--7--7--8--8--7--7--8--7----|

D|----------------------------|----------------------------|----------------|
A|----------------------------|----------------------------|----------------|
F|----------------------------|----------------------------|----------------|
C|----------------------------|----------------------------|----------------|
G|--6--6--6--6--6--6--6--6----|----------------------------|--0M-0M---------|
C|----------------------------|--9b-------9b-------9b------|--0M-0M-13s0----|

D|----------------------------|----------------------------|
A|----------------------------|----------------------------|
F|-----5--8-------------------|-----------5--7-------------|
C|--7-------------------------|--------7-------------------|
G|--------------0M-0M---------|--0M-0M-------------0--0----|
C|--------------0M-0M-12s-----|--0M-0M-------------0--0----|

D|----------------------------|----------------|----------------------------|
A|----------------------------|----------------|----------------------------|
F|----------------------------|----------------|-----5--8-------------------|
C|----------------------------|----------------|--7-------------------------|
G|--3h-5----------------------|--0M-0M---------|--------------0M-0M---------|
C|--------0--0--0--0--5h-6----|--0M-0M-13s0----|--------------0M-0M-12s-----|

D|----------------------------|----------------------------|
A|----------------------------|----------------------------|
F|-----------5--7-------------|----------------------------|
C|--------7-------------------|----------------------------|
G|--0M-0M-------------0--0----|--3h-5-----------3----------|
C|--0M-0M-------------0--0----|--------0--5--6-----6--5----|

D|----------------------------|----------------------------|
A|----------------------------|----------------------------|
F|--12-12-12-12-12-12-12-12---|--12-12-12-12-12-12-12-12---|
C|--x--x--x--x--x--x--x--x----|--x--x--x--x--x--x--x--x----|
G|--10-10-10-10-10-10-10-10---|--10-10-10-10-10-10-10-10---|
C|----------------------------|----------------------------|

D|----------------------------|----------------------------|
A|----------------------------|----------------------------|
F|--10-10-10-10-10-10-10-10---|--10-10-10-10-10-10-10-10---|
C|--x--x--x--x--x--x--x--x----|--x--x--x--x--x--x--x--x----|
G|--8--8--8--8--8--8--8--8----|--8--8--8--8--8--8--8--8----|
C|----------------------------|----------------------------|

D|----------------------------|----------------------------|
A|----------------------------|----------------------------|
F|--9--9--9--9--9--9--9--9----|--9--9--9--9--9--9--9--9----|
C|--x--x--x--x--x--x--x--x----|--x--x--x--x--x--x--x--x----|
G|--7--7--7--7--7--7--7--7----|--7--7--7--7--7--7--7--7----|
C|----------------------------|----------------------------|

D|----------------------------|----------------------------|
A|----------------------------|----------------------------|
F|--8--8--8--8--8--8--8--8----|--8--8--8--8--8--8--8--8----|
C|--x--x--x--x--x--x--x--x----|--x--x--x--x--x--x--x--x----|
G|--6--6--6--6--6--6--6--6----|--6--6--6--6--6--6--6--6----|
C|----------------------------|----------------------------|

D|----------------------------|----------------------------|
A|----------------------------|----------------------------|
F|--12-12-12-12-12-12-12-12---|--12-12-12-12-12-12-12-12---|
C|--x--x--x--x--x--x--x--x----|--x--x--x--x--x--x--x--x----|
G|--10-10-10-10-10-10-10-10---|--10-10-10-10-10-10-10-10---|
C|----------------------------|----------------------------|

D|----------------------------|----------------------------|
A|----------------------------|----------------------------|
F|--15-15-15-15-15-15-15-15---|--15-15-15-15-15-15-15-15---|
C|--x--x--x--x--x--x--x--x----|--x--x--x--x--x--x--x--x----|
G|--13-13-13-13-13-13-13-13---|--13-13-13-13-13-13-13-13---|
C|----------------------------|----------------------------|

D|----------------------------|----------------------------|
A|----------------------------|----------------------------|
F|--9--9--9--9--9--9--9--9----|--9--9--9--9--9--9--9--9----|
C|--x--x--x--x--x--x--x--x----|--x--x--x--x--x--x--x--x----|
G|--7--7--7--7--7--7--7--7----|--7--7--7--7--7--7--7--7----|
C|----------------------------|----------------------------|

D|----------------------------|----------------------------|
A|----------------------------|----------------------------|
F|--13-13-13-13-13-13-13-13---|--13-13-13-13-13-13-13-13---|
C|--x--x--x--x--x--x--x--x----|--x--x--x--x--x--x--x--x----|
G|--11-11-11-11-11-11-11-11---|--11-11-11-11-11-11-11-11---|
C|----------------------------|----------------------------|

D|----------------------------|----------------------------|
A|----------------------------|----------------------------|
F|----------------------------|----------------------------|
C|----------------------------|----------------------------|
G|--8h-5--------------6h-5----|--6h-5--------8h-5----------|
C|--------0--0--0--0----------|--------0--0--------0--0----|

D|----------------------------|----------------------------|
A|----------------------------|----------------------------|
F|----------------------------|----------------------------|
C|----------------------------|----------------------------|
G|-----8h-5--6h-5-------------|--3h-5----------------------|
C|--0--------------0--0--0----|--------0--0--0--0--5h-6----|

D|----------------------------|----------------------------|
A|----------------------------|----------------------------|
F|----------------------------|----------------------------|
C|----------------------------|----------------------------|
G|--8h-5--------------6h-5----|--6h-5--------8h-5----------|
C|--------0--0--0--0----------|--------0--0--------0--0----|

D|----------------------------|----------------------------|
A|----------------------------|----------------------------|
F|----------------------------|----------------------------|
C|----------------------------|----------------------------|
G|-----8h-5--6h-5-------------|--3h-5----------------------|
C|--0--------------0--0--0----|--------0--0--0--0--5h-6----|

D|----------------------------|----------------------------|
A|----------------------------|----------------------------|
F|----------------------------|----------------------------|
C|----------------------------|----------------------------|
G|--8h-5--------------6h-5----|--6h-5--------8h-5----------|
C|--------0--0--0--0----------|--------0--0--------0--0----|

D|----------------------------|----------------------------|
A|----------------------------|----------------------------|
F|----------------------------|----------------------------|
C|----------------------------|----------------------------|
G|-----8h-5--6h-5-------------|--3h-5-----------3--3--3----|
C|--0--------------0--0--0----|--------0--0--0--3--3--3----|

D|----------------------------|----------------------------|
A|----------------------------|----------------------------|
F|----------------------------|----------------------------|
C|----------------------------|----------------------------|
G|--8h-5--------------6h-5----|--6h-5--------8h-5----------|
C|--------0--0--0--0----------|--------0--0--------0--0----|

D|----------------------------|----------------------------|
A|----------------------------|----------------------------|
F|----------------------------|----------------------------|
C|----------------------------|----------------------------|
G|-----8h-5--6h-5-------------|--3h-5----------------------|
C|--0--------------0--0--0----|--------0--0--0--0--5h-6----|

D|----------------------------|----------------------------|
A|----------------------------|----------------------------|
F|----------------------------|----------------------------|
C|----------------------------|----------------------------|
G|--8h-5--------------6h-5----|--6h-5--------8h-5----------|
C|--------0--0--0--0----------|--------0--0--------0--0----|

D|----------------------------|----------------------------|
A|----------------------------|----------------------------|
F|----------------------------|----------------------------|
C|----------------------------|----------------------------|
G|-----8h-5--6h-5-------------|--3h-5-----------3--3--3----|
C|--0--------------0--0--0----|--------0--0--0--3--3--3----|

D|----------------------------|----------------------------|
A|----------------------------|----------------------------|
F|----------------------------|----------------------------|
C|----------------------------|----------------------------|
G|----------------------------|----------------------------|
C|--5--5--5--5--5--5--7--7----|--7--7--8--8--7--7--8--7----|

D|----------------------------|----------------------------|----------------|
A|----------------------------|----------------------------|----------------|
F|----------------------------|----------------------------|----------------|
C|----------------------------|----------------------------|----------------|
G|--6--6--6--6--6--6--6--6----|----------------------------|--0M-0M---------|
C|----------------------------|--9b-------9b-------9b------|--0M-0M-13s0----|

D|----------------------------|----------------------------|
A|----------------------------|----------------------------|
F|-----5--8-------------------|-----------5--7-------------|
C|--7-------------------------|--------7-------------------|
G|--------------0M-0M---------|--0M-0M-------------0--0----|
C|--------------0M-0M-12s-----|--0M-0M-------------0--0----|

D|----------------------------|----------------|----------------------------|
A|----------------------------|----------------|----------------------------|
F|----------------------------|----------------|-----5--8-------------------|
C|----------------------------|----------------|--7-------------------------|
G|--3h-5----------------------|--0M-0M---------|--------------0M-0M---------|
C|--------0--0--0--0--5h-6----|--0M-0M-13s0----|--------------0M-0M-12s-----|

D|----------------------------|----------------------------|
A|----------------------------|----------------------------|
F|-----------5--7-------------|----------------------------|
C|--------7-------------------|----------------------------|
G|--0M-0M-------------0--0----|--3h-5-----------3----------|
C|--0M-0M-------------0--0----|--------0--5--6-----6--5----|

D|----------------------------|----------------------------|
A|----------------------------|----------------------------|
F|--12-12-12-12-12-12-12-12---|--12-12-12-12-12-12-12-12---|
C|--x--x--x--x--x--x--x--x----|--x--x--x--x--x--x--x--x----|
G|--10-10-10-10-10-10-10-10---|--10-10-10-10-10-10-10-10---|
C|----------------------------|----------------------------|

D|----------------------------|----------------------------|
A|----------------------------|----------------------------|
F|--10-10-10-10-10-10-10-10---|--10-10-10-10-10-10-10-10---|
C|--x--x--x--x--x--x--x--x----|--x--x--x--x--x--x--x--x----|
G|--8--8--8--8--8--8--8--8----|--8--8--8--8--8--8--8--8----|
C|----------------------------|----------------------------|

D|----------------------------|----------------------------|
A|----------------------------|----------------------------|
F|--9--9--9--9--9--9--9--9----|--9--9--9--9--9--9--9--9----|
C|--x--x--x--x--x--x--x--x----|--x--x--x--x--x--x--x--x----|
G|--7--7--7--7--7--7--7--7----|--7--7--7--7--7--7--7--7----|
C|----------------------------|----------------------------|

D|----------------------------|----------------------------|
A|----------------------------|----------------------------|
F|--8--8--8--8--8--8--8--8----|--8--8--8--8--8--8--8--8----|
C|--x--x--x--x--x--x--x--x----|--x--x--x--x--x--x--x--x----|
G|--6--6--6--6--6--6--6--6----|--6--6--6--6--6--6--6--6----|
C|----------------------------|----------------------------|

D|----------------------------|----------------------------|
A|----------------------------|----------------------------|
F|--12-12-12-12-12-12-12-12---|--12-12-12-12-12-12-12-12---|
C|--x--x--x--x--x--x--x--x----|--x--x--x--x--x--x--x--x----|
G|--10-10-10-10-10-10-10-10---|--10-10-10-10-10-10-10-10---|
C|----------------------------|----------------------------|

D|----------------------------|----------------------------|
A|----------------------------|----------------------------|
F|--15-15-15-15-15-15-15-15---|--15-15-15-15-15-15-15-15---|
C|--x--x--x--x--x--x--x--x----|--x--x--x--x--x--x--x--x----|
G|--13-13-13-13-13-13-13-13---|--13-13-13-13-13-13-13-13---|
C|----------------------------|----------------------------|

D|----------------------------|----------------------------|
A|----------------------------|----------------------------|
F|--9--9--9--9--9--9--9--9----|--9--9--9--9--9--9--9--9----|
C|--x--x--x--x--x--x--x--x----|--x--x--x--x--x--x--x--x----|
G|--7--7--7--7--7--7--7--7----|--7--7--7--7--7--7--7--7----|
C|----------------------------|----------------------------|

D|----------------------------|----------------------------|
A|----------------------------|----------------------------|
F|--13-13-13-13-13-13-13-13---|--13-13-13-13-13-13-13-13---|
C|--x--x--x--x--x--x--x--x----|--x--x--x--x--x--x--x--x----|
G|--11-11-11-11-11-11-11-11---|--11-11-11-11-11-11-11-11---|
C|----------------------------|----------------------------|

D|----------------------------|----------------------------|
A|----------------------------|----------------------------|
F|--7--7--7--7--7--7--7--7----|--7--7--7--7--7--7--7--7----|
C|----------------------------|----------------------------|
G|----------------------------|----------------------------|
C|----------------------------|----------------------------|

D|----------------------------|----------------------------|
A|--9--9--9--9--9--9--9--9----|--9--9--9--9--9--9--9--9----|
F|----------------------------|----------------------------|
C|----------------------------|----------------------------|
G|----------------------------|----------------------------|
C|----------------------------|----------------------------|

D|----------------------------|----------------------------|
A|--8--8--8--8--8--8--8--8----|--8--8--8--8--8--8--8--8----|
F|----------------------------|----------------------------|
C|----------------------------|----------------------------|
G|----------------------------|----------------------------|
C|----------------------------|----------------------------|

D|----------------------------|----------------------------|
A|--6--6--6--6--6--6--6--6----|----------------------------|
F|----------------------------|--5--5--5--5--5--5--5--5----|
C|----------------------------|----------------------------|
G|----------------------------|----------------------------|
C|----------------------------|----------------------------|

D|----------------------------|----------------------------|
A|----------------------------|----------------------------|
F|--7--7--7--7--7--7--7--7----|--7--7--7--7--7--7--7--7----|
C|----------------------------|----------------------------|
G|----------------------------|----------------------------|
C|----------------------------|----------------------------|

D|----------------------------|----------------------------|
A|--9--9--9--9--9--9--9--9----|--9--9--9--9--9--9--9--9----|
F|----------------------------|----------------------------|
C|----------------------------|----------------------------|
G|----------------------------|----------------------------|
C|----------------------------|----------------------------|

D|----------------------------|----------------------------|
A|--8--8--8--8--8--8--8--8----|--8--8--8--8--8--8--8--8----|
F|----------------------------|----------------------------|
C|----------------------------|----------------------------|
G|----------------------------|----------------------------|
C|----------------------------|----------------------------|

D|--8--8--8--8--8--8--8--8----|--11-11-11-11-11-11-11-11---|--10s-----------|
A|----------------------------|----------------------------|----------------|
F|----------------------------|----------------------------|----------------|
C|----------------------------|----------------------------|----------------|
G|----------------------------|----------------------------|----------------|
C|----------------------------|----------------------------|----------------|

D|----------|----------------------------|----------------------------|
A|----------|----------------------------|----------------------------|
F|----------|--7--7--7--7--7--7--7--7----|--7--8--8--8--8--8--8--8----|
C|----------|----------------------------|----------------------------|
G|----------|----------------------------|----------------------------|
C|----------|----------------------------|----------------------------|

D|----------------------------|----------------------------|
A|----------------------------|----------------------------|
F|--12-12-12-12-12-12-12-12---|--12-12-12-12-12-12-12-12---|
C|--x--x--x--x--x--x--x--x----|--x--x--x--x--x--x--x--x----|
G|--10-10-10-10-10-10-10-10---|--10-10-10-10-10-10-10-10---|
C|----------------------------|----------------------------|

D|----------------------------|----------------------------|
A|----------------------------|----------------------------|
F|--10-10-10-10-10-10-10-10---|--10-10-10-10-10-10-10-10---|
C|--x--x--x--x--x--x--x--x----|--x--x--x--x--x--x--x--x----|
G|--8--8--8--8--8--8--8--8----|--8--8--8--8--8--8--8--8----|
C|----------------------------|----------------------------|

D|----------------------------|----------------------------|
A|----------------------------|----------------------------|
F|--9--9--9--9--9--9--9--9----|--9--9--9--9--9--9--9--9----|
C|--x--x--x--x--x--x--x--x----|--x--x--x--x--x--x--x--x----|
G|--7--7--7--7--7--7--7--7----|--7--7--7--7--7--7--7--7----|
C|----------------------------|----------------------------|

D|----------------------------|----------------------------|
A|----------------------------|----------------------------|
F|--8--8--8--8--8--8--8--8----|--8--8--8--8--8--8--8--8----|
C|--x--x--x--x--x--x--x--x----|--x--x--x--x--x--x--x--x----|
G|--6--6--6--6--6--6--6--6----|--6--6--6--6--6--6--6--6----|
C|----------------------------|----------------------------|

D|----------------------------|----------------------------|
A|----------------------------|----------------------------|
F|--12-12-12-12-12-12-12-12---|--12-12-12-12-12-12-12-12---|
C|--x--x--x--x--x--x--x--x----|--x--x--x--x--x--x--x--x----|
G|--10-10-10-10-10-10-10-10---|--10-10-10-10-10-10-10-10---|
C|----------------------------|----------------------------|

D|----------------------------|----------------------------|
A|----------------------------|----------------------------|
F|--15-15-15-15-15-15-15-15---|--15-15-15-15-15-15-15-15---|
C|--x--x--x--x--x--x--x--x----|--x--x--x--x--x--x--x--x----|
G|--13-13-13-13-13-13-13-13---|--13-13-13-13-13-13-13-13---|
C|----------------------------|----------------------------|

D|----------------------------|----------------------------|
A|----------------------------|----------------------------|
F|--9--9--9--9--9--9--9--9----|--9--9--9--9--9--9--9--9----|
C|--x--x--x--x--x--x--x--x----|--x--x--x--x--x--x--x--x----|
G|--7--7--7--7--7--7--7--7----|--7--7--7--7--7--7--7--7----|
C|----------------------------|----------------------------|

D|----------------------------|----------------------------|
A|----------------------------|----------------------------|
F|--13-13-13-13-13-13-13-13---|--13-13-13-13-13-13-13-13---|
C|--x--x--x--x--x--x--x--x----|--x--x--x--x--x--x--x--x----|
G|--11-11-11-11-11-11-11-11---|--11-11-11-11-11-11-11-11---|
C|----------------------------|----------------------------|

D|----------------------------|----------------------------|
A|----------------------------|----------------------------|
F|-----5--7-----5--7-----5----|--7-----5--7-----7-----5----|
C|--8--------8--------8-------|-----8--------8-----8-------|
G|----------------------------|----------------------------|
C|----------------------------|----------------------------|

D|----------------------------|----------------------------|
A|----------------------------|----------------------------|
F|-----5--7-----5--7-----5----|--7-----5--7-----7-----5----|
C|--8--------8--------8-------|-----8--------8-----8-------|
G|----------------------------|----------------------------|
C|----------------------------|----------------------------|

D|----------------------------|----------------------------|
A|----------------------------|----------------------------|
F|-----5--7-----5--7-----5----|--7-----5--7-----7-----5----|
C|--8--------8--------8-------|-----8--------8-----8-------|
G|----------------------------|----------------------------|
C|----------------------------|----------------------------|

D|----------------------------|----------------------------|
A|----------------------------|----------------------------|
F|-----5--7-----5--7-----5----|--7-----5--7-----7-----5----|
C|--8--------8--------8-------|-----8--------8-----8-------|
G|----------------------------|----------------------------|
C|----------------------------|----------------------------|

D|----------------------------|----------------------------|
A|----------------------------|----------------------------|
F|-----5--7-----5--7-----5----|--7-----5--7-----7-----5----|
C|--8--------8--------8-------|-----8--------8-----8-------|
G|----------------------------|----------------------------|
C|----------------------------|----------------------------|

D|----------------------------|----------------------------|
A|----------------------------|----------------------------|
F|-----5--7-----5--7-----5----|--7-----5--7-----7-----5----|
C|--8--------8--------8-------|-----8--------8-----8-------|
G|----------------------------|----------------------------|
C|----------------------------|----------------------------|

D|----------------------------|----------------------------|
A|----------------------------|----------------------------|
F|-----5--7-----5--7-----5----|--7-----5--7-----7-----5----|
C|--8--------8--------8-------|-----8--------8-----8-------|
G|----------------------------|----------------------------|
C|----------------------------|----------------------------|

D|----------------------------|----------------------------|-------|-------|
A|----------------------------|----------------------------|-------|-------|
F|-----5--7-----5--7-----5----|--7-----5--7-----7-----5----|-------|-------|
C|--8--------8--------8-------|-----8--------8-----8-------|--5L---|--5L---|
G|----------------------------|----------------------------|--5L---|--5L---|
C|----------------------------|----------------------------|--5L---|--5L---|

D|-------|-------|
A|-------|-------|
F|-------|-------|
C|--5L---|--5----|
G|--5L---|--5----|
C|--5L---|--5----|


************************************

| h  Hammer-on
| b  Bend
| x  Dead note

************************************

            
            
Suggest correction
Creating personal tab
Creating personal tab
You can edit any tab online and save it as your Personal.

You can edit, replace or remove any tab part or add personal notes – all changes will be seen only by you.

Personal tabs can be accessed anytime from any device, even offline.
Learn more »
comments
print report bad tab
1 comment total.
0 reply
mr.speaker 30 Sep 11, 2010 04:45 PM

In the verse you missed out on some notes.

it goes 8h5 - 5 and so on, the hammer ons have an extra note after them so yeahh...

great tab otherwise though :D

guest
You may want to rate the tab now too:
select rating
Wanna post a correction for this tab? Suggest correction