Oops, an error
Loading. Please wait.

Barbedwired Babys Dream tab

version 1
version 1

Whole song

Interactive

11,447 views 12 this week
2 commentsread comments
1 2 3 4 5
x 7
add to favorites
×
Save as Personal and add changes to this tab that will be seen only by you. Learn more ›
×
You can save this tab as Personal to edit and correct it or add notes. All changes will be seen only by you. Learn more »
launch autoscroll
font size
0
reset
how to read this tab
guitar tuner
edit
Autoscroll
slow
fast
+/-
esc
set tempo
stop
    ____________________________
   / Dizzy Mizz Lizzy          /
  / Barbedwired Baby's Dream  /
 / Dizzy Mizz Lizzy          /
/___________________________/


 Time:   4/4
 Tempo:  Q=115 bpm
 Tuning: Whole-step down (D G C F A D)
 Writer: Tim Christensen

 Gtr I - Electric, w/ 'Dizzy' Overdrive
 Gtr II - Electric, w/ 'Dizzy' Overdrive

---------------------------------------------------------------------------------


INTRO
 Gtrs I, II
  S   +S  S S S Q       E.    S +E    E     +S  S S S Q       S S S S +S  S S S
:---|-------------------------------------|-------------------------------------|
:---|-------------------------------------|-------------------------------------|
:-7-|-(7)-7---x-7-------5-----4-(4)---5---|-(5)-5---x-5-------7-7-7-7-(7)-7-7-7-|
:-5-|-(5)-5---x-5-------x-----x-------5---|-(5)-5---x-5-------7-7-7-7-(7)-7-7-7-|
:-3-|-(3)-3---x-3-------3-----2-(2)---x---|---------x---------x-----------------|
:---|---------x-----------------------5---|-(5)-5---x-5-------7-7-7-7-(7)-7-7-7-|


                            PM--|         PM--|     PM--|     PM----|
  S S S S E   S S +S  S E   S S S S   +S  S S S E   S S S E   S S S S S
|-----------------------------------|-----------------------------------|
|-----------------------------------|-----------------------------------|
|-----------------------------------|---------------------------------7-|
|-7h9\7p5-7-----5-(5)---------------|---------------------------------5-|
|-------------7-------5-7---------5-|-(5)-------5---------5---------0-3-|
|---------------------------5-6-7---|-----5-6-7-----5-6-7-----5-6-7-----|


  +S  S S S Q       E.    S +E    E     S S S S Q       E.    S +E    E
|-------------------------------------|-----------------------------------|
|-------------------------------------|-----------------------------------|
|-(7)-7---x-7-------5-----4-(4)---7---|-x-7---x-7---------------------9---|
|-(5)-5---x-5-------x-----x-------5---|-x-5---x-5-------7-----8-(8)---7---|
|-(3)-3---x-3-------3-----2-(4)-------|-x-----x---------x-----x-------x---|
|---------x-----------------------5---|-x-5---x-5-------5-----6-(8)---7---|


  S S S S Q        E.    S +E    E     +W
|------------------------------------|-----------------------------------|
|------------------------------------|-----------------------------------|
|-x-9---x-9--------------------------|-----------------------------------|
|-x-7---x-7--------------------------|-----------------------------------|
|-x-----x----------------5-(5)---7---|-(7)-------------------------------|
|-x-7---x-7-------/7-----------------|-----------------------------------|


                            PM----|
  S E   S E   S S +S  S E   S S S S
|-----------------------------------|
|-----------------------------------|
|-----------------------------------|
|-7h9\7p5-7-----5-(5)---------------|
|-------------7-------5-7---------5-|
|---------------------------5-6-7---|



VERSE 1:
                             PM                                     PM
    Q       E    E    +E     E    Q          Q        E   E   +E    E   Q
||----------------------------------------|-------------------------------------|
||o---------------------------------------|-------------------------------------|
||----------------------------------------|-------------------------------------|
||--9-------9---10---(10)---10---10-------|-10-------10---9---(9)---9---9-------|
||o-7-------7----7----(7)----7----7-------|--9--------9---9---(9)---9---9-------|
||----------------------------------------|---------------7---(7)---7---7-------|
...lost inside a dream...

                                         1.
                           PM                                     PM
  Q       E    E    +E     E    Q          E   E    E   E   +E    E   Q
|---------------------------------------|--------------------------------------||
|---------------------------------------|-------------------------------------o||
|---------------------------------------|------7-------------------------------||
|-9-------9---10---(10)---10---10-------|-10---x---10---9---(9)---9---9--------||
|-7-------7----7----(7)----7----7-------|--9---9----9---9---(9)---9---9-------o||
|---------------------------------------|---------------7---(7)---7---7--------||


 2.
   E   E    E   E   +E    E   E.     S
|--------------------------------------||
|--------------------------------------||
|------7-----------------------------7-||
|-10---x---10---9---(9)---x---x/-----5-||
|--9---9----9---9---(9)---x---x/-----3-||
|---------------7---(7)---x---x/-------||



CHORUS:
   +S S S S Q        E.    S +E    E     +S  S S S Q       S S S S +S  S S S
|--------------------------------------|-------------------------------------|
|--------------------------------------|-------------------------------------|
|-(7)-7---x-7--------5-----4-(4)---5---|-(5)-5---x-5-------7-7-7-7-(7)-7-7-7-|
|-(5)-5---x-5--------x-----x-------5---|-(5)-5---x-5-------7-7-7-7-(7)-7-7-7-|
|-(3)-3---x-3--------3-----2-(2)---x---|---------x---------x-----------------|
|---------x------------------------5---|-(5)-5---x-5-------7-7-7-7-(7)-7-7-7-|


                            PM--|         PM--|     PM--|     PM----|
  S S S S E   S S +S  S E   S S S S   +S  S S S E   S S S E   S S S S S
|-----------------------------------|-----------------------------------|
|-----------------------------------|-----------------------------------|
|-----------------------------------|---------------------------------7-|
|-7h9p7\5-7-----5-(5)---------------|---------------------------------5-|
|-------------7-------5-7---------5-|-(5)-------5---------5---------0-3-|
|---------------------------5-6-7---|-----5-6-7-----5-6-7-----5-6-7-----|


  S S S S Q       E.    S +E    E     S S S S Q       S S S S +S  S S S
|-----------------------------------|-----------------------------------|
|-----------------------------------|-----------------------------------|
|---7---x-7-------5-----4-(4)---5---|-x-5---x-5-------5-5-5-5-(5)-5-5-5-|
|---5---x-5-------x-----x-------5---|-x-5---x-5-------5-5-5-5-(5)-5-5-5-|
|---3---x-3-------3-----2-(2)---x---|-x-----x---------------------------|
|-------x-----------------------5---|-x-5---x-5-------5-5-5-5-(5)-5-5-5-|


  Q       Q       E   E   E    E      +Q         Q        E.    S +E    E
|----------------------------------|----------------------------------------||
|----------------------------------|----------------------------------------||
|----------------------------------|----------------------------------------||
|-5-------5-------9---9---9---10---|-(10)-------10-------10-----9-(9)---7---||
|-x-------x-------x---x---x----x---|-------------x--------x-----x-------x---||
|-3-------3-------7---7---7----8---|--(8)--------8--------8-----7-(7)---5---||


 ________________
|CHORUS 1 ENDING:
  Q       Q       E   E   E   E     +W
|---------------------------------|-----------------------------------|
|---------------------------------|-----------------------------------|
|---------------------------------|-----------------------------------|
|-5-------5-------9---9-------9---|-(9)-------------------------------|
|-x-------x-------x---x-------7---|-(7)-------------------------------|
|-3-------3-------7---7-------0---|-(0)-------------------------------|


                            PM----|
  S E   S E   S S +S  S E   S S S S
|-----------------------------------|
|-----------------------------------|
|-----------------------------------|
|-7-9---5-7-----5-(5)---------------|
|-------------7-------5-7---------5-|
|---------------------------5-6-7---|


 ________________
|CHORUS 2 ENDING:
  Q       Q       E   E   E   E     +W
|---------------------------------|-----------------------------------|
|---------------------------------|-----------------------------------|
|---------------------------------|-----------------------------------|
|-5-------5-------9---9-------9---|-(9)-------------------------------|
|-x-------x-------x---x-------7---|-(7)-------------------------------|
|-3-------3-------7---7-------0---|-(0)-------------------------------|


  +H.                       Q
|------------------------------------|
|------------------------------------|
|------------------------------------|
|-(9)--------------------------------|
|-(7)--------------------------------|
|-(0)-----------------------x\-------|


 ________________
|CHORUS 3 ENDING:
    Q       Q       E   E   E    E     +Q          E    S  S  E.    S +E    E
||-----------------------------------|-------------------------------------------||
||o----------------------------------|------------------------------------------o||
||-----------------------------------|-------------------------------------------||
||--5-------5-------9---9---9---10---|-(10)-------10---10-10-10-----9-(9)---7----||
||o-x-------x-------x---x---x----x---|-------------x----x--x--x-----x-------x---o||
||--3-------3-------7---7---7----8---|--(8)--------8----8--8--8-----7-(7)---5----||


  Q       Q       E   E   E   E     H               H
|---------------------------------|---------------------------------|
|---------------------------------|---------------------------------|
|---------------------------------|---------------------------------|
|-5-------5-------9---9---9-------|-6-------------------------------|
|-x-------x-------x---x---x-------|-7-------------------------------|
|-3-------3-------7---7---7---0---|-0-------------------------------|



VERSE 2: similar to VERSE 1


CHORUS 2



INTERLUDE:
 6/4
 Gtrs I, II
      PM--------|   PM--------|    PM--------|
    S E   S +S  S S S +S  E   S  S E   S +S  S E   +S  E.
||-----------------------------------------------------------|
||o----------------------------------------------------------|
||-----------------------------------------------------------|
||-----------------------------------------------------------|
||o----------------------------------------------------------|
||--3-0---0-(0)-0-7-0-(0)-0---0-12-0---0-(0)-0-6---(6)-5-----|

 4/4
    PM--------|   PM----|
  S E   S +S  S S S +S  S E   +S  E.
|----------------------------------------||
|---------------------------------------o||
|----------------------------------------|| *Play all the bottom notes plam muted
|----------------------------------------||  but keep the melody notes free
|---------------------------------------o||
|-3-0---0-(0)-0-7-0-(0)-0-6---(6)-5------||


 6/4
    PM--------|   PM--------|   PM--------|
  S E   S +S  S S S +S  E   S S E   S +S  S E   +S  E.
|---------------------------------------------------------|
|---------------------------------------------------------|
|---------------------------------------------------------|
|-----------------------------2---------------------------|
|---------------2-----------------------------------------|
|-3-2---2-(2)-2---2-(2)-2---2---2---2-(2)-2-6---(6)-5-----|

 4/4
    PM--------|   PM----|
  S E   S +S  S S S +S  S E   +S  E.
|---------------------------------------|
|---------------------------------------|
|---------------------------------------| *Here are the bottom notes lifted a tone
|---------------------------------------|  - the melody notes are the same
|---------------2-----------------------|
|-3-2---2-(2)-2---2-(2)-2-6---(6)-5-----|


 6/4
    PM--------|   PM--------|    PM--------|
  S E   S +S  S S S +S  E   S  S E   S +S  S E   +S  E.
|----------------------------------------------------------|
|----------------------------------------------------------|
|----------------------------------------------------------|
|----------------------------------------------------------|
|----------------------------------------------------------|
|-3-0---0-(0)-0-7-0-(0)-0---0-12-0---0-(0)-0-6---(6)-5-----|

 4/4
    PM--------|   PM----|
  S E   S +S  S S S +S  S E   +S  E.
|---------------------------------------|
|---------------------------------------|
|---------------------------------------| *...and back down with the bottom notes
|---------------------------------------|
|---------------------------------------|
|-3-0---0-(0)-0-7-0-(0)-0-6---(6)-5-----|



BREAKDOWN:
 Gtr I
  Q       Q       E   E   E   E     +E    Q.          H
|---------------------------------|----------------------------------------------|
|---------------------------------|----------------------------------------------|
|-----------------------------9---|-(9)------------------------------------------|
|-5-------5-------9---9---9---9---|-(9)------------------------------------------|
|-5-------5-------9---9---9---7---|-(7)------------------------------------------|
|-3-------3-------7---7---7-------|----------------------------------------------|
|
|Gtr II
|                                                                        ~~~~~~~
| W                                  E         E      +E     E     +S  S Q
|---------------------------------|-----------10-----(10)---10----(10)-----------|
|---------------------------------|-----------10b12==(10)---10b12r(10)p8---------|
|---------------------------------|-------7h9----------------------------9-------|
|---------------------------------|----------------------------------------------|
|---------------------------------|----------------------------------------------|
|---------------------------------|----------------------------------------------|


  Q       Q       E   E   E   E     +E    Q.          H
|---------------------------------|----------------------------------------------|
|---------------------------------|----------------------------------------------|
|-----------------------------9---|-(9)------------------------------------------|
|-5-------5-------9---9---9---9---|-(9)------------------------------------------|
|-5-------5-------9---9---9---7---|-(7)------------------------------------------|
|-3-------3-------7---7---7-------|----------------------------------------------|
|
|
|                                               ~~~~~~~             ~~~~~
| W                                  E       S  S +E     E       S  E.     Q
|---------------------------------|---------10------------------10--------------------|
|---------------------------------|-10b12==(10)-8-(8)---10b12==(10)-8-----10b12-------|
|---------------------------------|---------------------------------------------------|
|---------------------------------|---------------------------------------------------|
|---------------------------------|---------------------------------------------------|
|---------------------------------|---------------------------------------------------|


                                    |-----5-----|  |---5---|  |-----5-----|      |-------5-------|
  Q       Q       E   E   E   E     S  S  S  S  S  S  e    E  S  S  S  S  S     +S   S
   +S   E
|---------------------------------|------------------------------------------------------------------|
|---------------------------------|---15p14p12----12-------------------------------------------------|
|-----------------------------9---|------------14----14---13h14p13p11-14-----------------------------|
|-5-------5-------9---9---9---9---|--------------------------------------14b16=(14)-14pb16r(14)-14---|
|-5-------5-------9---9---9---7---|------------------------------------------------------------------|
|-3-------3-------7---7---7-------|------------------------------------------------------------------|
|
|
|                                   |-----5-----|  |---5---|  |-----5-----|      |-------5-------|
| W                                 S  S  S  S  S  S  e    E  S  S  S  S  S     +S   S
   +S   E
|---------------------------------|---15p14p13----12-------------------------------------------------|
|---------------------------------|------------15----15---14h15p14p12-15-----------------------------|
|---------------------------------|--------------------------------------14b16=(14)-14pb16r(14)-12---|
|---------------------------------|------------------------------------------------------------------|
|---------------------------------|------------------------------------------------------------------|
|---------------------------------|------------------------------------------------------------------|



GUITAR SOLO:
 Gtr I
  Q       Q       E   E   E   E
|---------------------------------|
|---------------------------------|
|-----------------------------9---|
|-5-------5-------9---9---9---9---|
|-5-------5-------9---9---9---7---|
|-3-------3-------7---7---7-------|


 Gtr II
  +E     E    Q         S  S  S  S  E    S  S    E    E    E    S  S  E    S  S  E    S  S
|---------------------------------------------|--------------------------------------------|
|---------------------------------------------|--------------------------------------12-12-|
|-(9)---14---14b16-----14-14-14-14-14---14-14-|-14---14---14---14-14-14---14-14-14---------|
|-(9)-----------------------------------------|--------------------------------------------|
|-(7)-----------------------------------------|--------------------------------------------|
|---------------------------------------------|--------------------------------------------|
             *bend up all the 14's and stroke them with vibrato to give this insane sound


   E     S  S  S     +S   e  S     +T   T  S  S  E    S  S 
|----------12----------------------------------------------|
|-------12----15b17r(15)p12------------------14------------|
|-14b16---------------------14b16r(14)p12-14----12---------|
|----------------------------------------------------14-14-|
|----------------------------------------------------------|
|----------------------------------------------------------|


   E    T  T  S  S  S  S  S  E    S  S  T  T  S  S  S
|-----------------------------------------------------|
|-15---------------12-------12------------------------|
|------14p13p12-14-12-------12------------------------|
|---------------------14-12------14-12----------------|
|--------------------------------------14s12-10-12-10-|
|-----------------------------------------------------|


   S  S  S  S  S  S  S  S  S  S  S  S  S  S  S  S    S  S  S  S  S  S  S  S  S  S  S  S e     S
|-------------------------------------------------|------------------------------------------------|
|-------------------------------------------------|------------------------------------------------|
|-------------------------------------------------|------------------------------------------------|
|-------------------------------------------------|------------------------------------------------|
|-------------10-------------12-------10----------|----12-------10-------12-------10-12-12b14-10---|
|-12-12-12-12----12-12-12-12----12-12----12-12-12-|-12----12-12----12-12----12-12------------------|

                                                                                  ~~~~~~~
   E    S  S  E    S  S  S  S  S  S  E    S  S    S  S  S  S  S     +T   T  S  S  Q
  E.      S
|----------------------------------------------|-----------------------------------------------------|
|----------------------------------------------|-----------------------------------------------------|
|----------------------------------------------|----12-14-14-14b16r(14)p12---------------------------|
|-----------------------------12----12---14-12-|-14------------------------14-12-14-------14\-----12-|
|------10----10---12-10-12s14----14------------|--------------------------------------------------10-|
|-12------12-----------------------------------|---------------------------------------------------8-|



CHORUS 3



OUTRO:
 Gtrs I, II
  E.    S +E    E   S S S S Q         E.    S +E    E   S S S S Q
|-----------------------------------|-----------------------------------|
|-----------------------------------|-----------------------------------|
|-9-----8-(8)---7-----7---x-7-------|-9-----8-(8)---7-----7---x-7-------|
|-x-----x-------5-----5---x-5-------|-x-----x-------5-----5---x-5-------|
|-7-----6-(6)---x---------x---------|-7-----6-(6)---x---------x---------|
|---------------5-----5---x-5-------|---------------5-----5---x-5-------|


  E.    S +E    E   S S S S Q          E.    S +E    E    H
|-----------------------------------|-------------------------------------:
|-----------------------------------|-------------------------------------:
|-7-----8-(8)---9-----9---x-9-------|-------------------------------------:
|-x-----x-------7-----7---x-7-------|-------------------------------------:
|-5-----6-(6)-------------x---------|--------5-(5)---7\-------------------:
|---------------7-----7---x-7-------|-/7----------------------------------:




 LYRICS
**********
  Lost inside a dream - if you know what I mean
  I am running 'round in circles
  Misery was here, acted so sincere
  Now I'm running 'round in circles with a friend

  I can't find you
  Where are you barbedwired baby?
  Are you hiding?
  Please tell me what's inside the screen
  Is it a barbedwired baby's dream?

  Sitting all the time, trying to make it rhyme
  But I'm stoned for a moment
  Digging in the moon with a silver spoon
  Yes, I'm stoned for a moment with a friend

  I can't find you
  Where are you barbedwired baby?
  Are you hiding?
  But the objection's overruled
  Why do I always play the fool?
  Please tell me what's inside the screen
  Is it a barbedwired baby's dream?



------------------------------------------------------------------------------
 21st /May /06
 Just mail me at Maitinin@gmail.com with questions, comments and corrections!
------------------------------------------------------------------------------



...also check out my updated FULL ALBUM transcriptions for all the albums on my own site:


  'DIZZY MIZZ LIZZY' album
   www.playlikethegreats.com/guitartabs/dizzy-mizz-lizzy-album-by-dizzy-mizz-lizzy


  'ROTATOR' album
   www.playlikethegreats.com/guitartabs/rotator-album-by-dizzy-mizz-lizzy


  'THE BEST OF DIZZY MIZZ LIZZY' album
   www.playlikethegreats.com/guitartabs/the-best-of-dizzy-mizz-lizzy-album-by-dizzy-mizz-lizzy


  'FORWARD IN REVERSE' album
   www.playlikethegreats.com/guitartabs/forward-in-reverse-album-by-dizzy-mizz-lizzy


Musical regards,
Maitinin
16th May 2016

            
            
Suggest correction
Creating personal tab
Creating personal tab
You can edit any tab online and save it as your Personal.

You can edit, replace or remove any tab part or add personal notes – all changes will be seen only by you.

Personal tabs can be accessed anytime from any device, even offline.
Learn more »
comments
print report bad tab
2 comments total.
0 reply
jensfg 30 Aug 12, 2007 08:01 AM

Genialt, som altid Maitinin :D
5/5 :)

0 reply
SauerPilsner 36 Oct 28, 2008 11:21 AM

jeg har kun tjekket introen og verset men det virker som om du har styr på det 5/5 fra mig

guest
You may want to rate the tab now too:
select rating
Wanna post a correction for this tab? Suggest correction