Oops, an error
Loading. Please wait.

Made To Believe tab

version 2
version 2

Whole song

Interactive

490 views 1 this week
no commentswrite comment
1 2 3 4 5
2 more votes to show rating
add to favorites
×
Save as Personal and add changes to this tab that will be seen only by you. Learn more ›
×
You can save this tab as Personal to edit and correct it or add notes. All changes will be seen only by you. Learn more »
launch autoscroll
font size
0
reset
how to read this tab
guitar tuner
edit
Autoscroll
slow
fast
+/-
esc
set tempo
stop
    ____________________________
   / Made to Believe            /
  / Dizzy Mizz Lizzy           /
 / Forward in Reverse (2016)  /
/____________________________/


  key:    C minor
  time:   4/4
  tempo:  Q=100 bpm
  tuning: Dropped-C (C G C F A D)
  writer: Tim Christensen

--------------------------------------------------------------------------------------



[Intro]
  Strum the chord and fade in while it swells in feedback.
  C5
 |0--------------|(0)-------------|(0)------------|(0)-------------|
 |3--------------|(3)-------------|(3)------------|(3)-------------|
 |2--------------|(2)-------------|(2)------------|(2)-------------|
 |0--------------|(0)-------------|(0)------------|(0)-------------|
 |0--------------|(0)-------------|(0)------------|(0)-------------|
 |0--------------|(0)-------------|(0)------------|(0)-------------|



[Verse]
  F(b5)
 |--------------------------------|--------------------------------|
 |--------------------------------|--------------------------------|
 |6-6-6-6-----6-6-6-6-------------|6-6-6-6-----6-6-6-6-------------|
 |x-x-x-x-----x-x-x-x-------------|x-x-x-x-----x-x-x-x-------------|
 |x-x-x-x-x-x-x-x-x-x-x-x-x-x-x-x-|x-x-x-x-x-x-x-x-x-x-x-x-x-x-x-x-|
 |5-5-5-5-5-5-5-5-5-5-5-5-5-5-5-5-|5-5-5-5-5-5-5-5-5-5-5-5-5-5-5-5-|
 "Turn op the heat if you wanna be different


  G
 |--------------------------------|--------------------------------|
 |--------------------------------|--------------------------------|
 |6-6-6-6-----6-6-6-6-------------|6-6-6-6-----6-6-6-6-------------|
 |x-x-x-x-----x-x-x-x-------------|x-x-x-x-----x-x-x-x-------------|
 |x-x-x-x-x-x-x-x-x-x-x-x-x-x-x-x-|x-x-x-x-x-x-x-x-x-x-x-x-x-x-x-x-|
 |7-7-7-7-7-7-7-7-7-7-7-7-7-7-7-7-|7-7-7-7-7-7-7-7-7-7-7-7-7-7-7-7-|
  Turn up the mic if you wanna go loud


  F(b5)
 |--------------------------------|--------------------------------|
 |--------------------------------|--------------------------------|
 |6-6-6-6-----6-6-6-6-------------|6-6-6-4-----6-6-6-4-------------|
 |x-x-x-x-----x-x-x-x-------------|x-x-x-x-----x-x-x-x-------------|
 |x-x-x-x-x-x-x-x-x-x-x-x-x-x-x-x-|x-x-x-x-x-x-x-x-x-x-x-x-x-x-x-x-|
 |5-5-5-5-5-5-5-5-5-5-5-5-5-5-5-5-|5-5-5-5-5-5-5-5-5-5-5-5-5-5-5-5-|
  Nobody knows when it's gonna be over


  G
 |--------------------------------|--------------------------------|
 |--------------------------------|--------------------------------|
 |6-6-6-6-----6-6-6-6-------------|6-6-6-6-----6-6-6-6-------------|
 |x-x-x-x-----x-x-x-x-------------|x-x-x-x-----x-x-x-x-------------|
 |x-x-x-x-x-x-x-x-x-x-x-x-x-x-x-x-|x-x-x-x-x-x-x-x-x-x-x-x-x-x-x-x-|
 |7-7-7-7-7-7-7-7-7-7-7-7-7-7-7-7-|7-7-7-7-7-7-7-7-7-7-7-7-7-7-7-7-|
  Nobody knows if it's gonna freak out



[Pre-Chorus]
  Ab/Bb                               Bb
 |---------------------------x-x-x-x-|------------------------------------x-x-x-x-|
 |---------------------------x-x-x-x-|------------------------------------x-x-x-x-|
 |-9------9------9----10-----x-x-x-x-|-9--------9--------9-------10-------x-x-x-x-|
 |10-----10-----10----10-----x-x-x-x-|10-------10-------10-------10-------x-x-x-x-|
 |-x-x-x--x-x-x--x-x-x-x-x-x-x-x-x-x-|-x--x--x--x--x--x--x--x--x--x--x--x-x-x-x-x-|
 |-8-8-8--8-8-8--8-8-8-8-8-8-x-x-x-x-|10-10-10-10-10-10-10-10-10-10-10-10-x-x-x-x-|
  No navigation                       For my imagination


  Cm
 |-----------------------------------------|--------------------------x-x-x-x-|
 |-----------------------------------------|--------------------------x-x-x-x-|
 |9---9-10---10-10/12---12-9---9-10---10---|5---5-7---7-7/9---9-5---5-x-x-x-x-|
 |-----------------------------------------|--------------------------x-x-x-x-|
 |7---7--8----8--8/10---10-7---7--8----8---|3---3-5---5-5/7---7-3---3-x-x-x-x-|
 |-----------------------------------------|--------------------------x-x-x-x-|
  Always on my mind


  Ab/Bb                                Bb
 |----------------------------x-x-x-x-|------------------------------------x-x-x-x-|
 |----------------------------x-x-x-x-|------------------------------------x-x-x-x-|
 |-9------9------9-----10-----x-x-x-x-|-9--------9--------9-------10-------x-x-x-x-|
 |10-----10-----10-----10-----x-x-x-x-|10-------10-------10-------10-------x-x-x-x-|
 |-x-x-x--x-x-x--x-x-x--x-x-x-x-x-x-x-|-x--x--x--x--x--x--x--x--x--x--x--x-x-x-x-x-|
 |-8-8-8--8-8-8--8-8-8--8-8-8-x-x-x-x-|10-10-10-10-10-10-10-10-10-10-10-10-x-x-x-x-|
  I won't believe it                   'Til the day I see it


  G                                PM----------------|
 |--------------------------------|--------------------------------|
 |--------------------------------|--------------------------------|
 |6-----6-----9-----6-----7-------|--------------------------------|
 |7-----7-----7-----7-----7-------|7-----6-----5-----3-----/10-----|
 |x-x-x-x-x-x-x-x-x-x-x-x-x-x-x-x-|7-----6-----5-----3-----/10-----|
 |7-7-7-7-7-7-7-7-7-7-7-7-7-7-7-7-|7-----6-----5-----3-----/10-----|
  And I guess I will in time"




... If you want to support a contributor like me, check out the complete tab
    on my own site, where you will get both detailed pdfs and sound-files:


       www.playlikethegreats.com/guitartabs/made-to-believe-by-dizzy-mizz-lizzy


    Or check out my FULL ALBUM collection for the new album:


      'FORWARD IN REVERSE' album
       www.playlikethegreats.com/guitartabs/forward-in-reverse-album-by-dizzy-mizz-lizzy



Musical regards,
Maitinin
16th May 2016

            
            
Suggest correction
Creating personal tab
Creating personal tab
You can edit any tab online and save it as your Personal.

You can edit, replace or remove any tab part or add personal notes – all changes will be seen only by you.

Personal tabs can be accessed anytime from any device, even offline.
Learn more »
Give kudos to tab author, rate the tab!
1 2 3 4 5
comments
print report bad tab
guest
You may want to rate the tab now too:
select rating
Wanna post a correction for this tab? Suggest correction