Oops, an error
Loading. Please wait.

Wild Thoughts intro tab

version 2
version 2

Intro

  • The acoustic lead intro to wild thoughts.

Whole song

19,774 views 285 this week
4 commentsread comments
1 2 3 4 5
x 36
add to favorites
×
Save as Personal and add changes to this tab that will be seen only by you. Learn more ›
×
You can save this tab as Personal to edit and correct it or add notes. All changes will be seen only by you. Learn more »
launch autoscroll
font size
0
reset
how to read this tab
guitar tuner
edit
Autoscroll
slow
fast
+/-
esc
set tempo
stop
About this tab version
The acoustic lead intro to wild thoughts. Was this info helpful? Yes No
[Intro]

e|-------8-10-11-11-11-11-10-10-|-10-8-8-8--------------------|------------------|
B|-----8------------------------|-------------------------8---|------------------|
G|------------------------------|--------------------8-10---8-|------------------|
D|------------------------------|-----------------------------|-10-----------8---|
A|------------------------------|-----------------------------|------------------|
E|------------------------------|-----------------------------|------------------|
              \   3   /\   3   /  \  3  /

[Chorus/Solo]

e|-15------15-16-15---------------|-15------15-20-15---------------|
B|-------------------16-------16--|-------------------16-------16--|
G|------------------------17------|------------------------17------|
D|--------------------------------|--------------------------------|
A|--------------------------------|--------------------------------|
E|--------------------------------|--------------------------------|


e|-15----15---15-16-15-------------15-|------------------------------------|
B|----18----------------16------16----|-16-16-16-16-16-18-18b-18-16--------|
G|---------------------------17-------|-----------------------------17-~~~-|
D|------------------------------------|------------------------------------|
A|------------------------------------|------------------------------------|
E|------------------------------------|------------------------------------|
                             \   3   /  \   3   /\   3   /\   3   /

*************************

| b  Bend (Full tone)
| ~  Vibrato

*************************

            
            
Suggest correction
Creating personal tab
Creating personal tab
You can edit any tab online and save it as your Personal.

You can edit, replace or remove any tab part or add personal notes – all changes will be seen only by you.

Personal tabs can be accessed anytime from any device, even offline.
Learn more »
comments
print report bad tab
4 comments total. Showing first comments. show 1 bad comment
+3 reply
moyo420 168 Jun 26, 2017 08:39 AM

Thanks for the ratings guys :P

0 reply
moyo420 168 Jul 03, 2017 05:00 PM

its coming its coming D:

guest
You may want to rate the tab now too:
select rating
Wanna post a correction for this tab? Suggest correction