Oops, an error
Loading. Please wait.

Dinah tab

version 1
version 1

Whole song

Interactive

3,542 views 12 this week
no commentswrite comment
1 2 3 4 5
1 last vote to show rating
add to favorites
×
Save as Personal and add changes to this tab that will be seen only by you. Learn more ›
×
You can save this tab as Personal to edit and correct it or add notes. All changes will be seen only by you. Learn more »
launch autoscroll
font size
0
reset
how to read this tab
guitar tuner
edit
Autoscroll
slow
fast
+/-
esc
set tempo
stop
Author
Difficulty
Unregistered
intermediate
Django Reinhardt  -  Dinah  
                                   




     C#9+/5+                  C9+/5+                  
E||-----------5----5----5--|------------4----4----4--|
B||--5--5--5---------------|--4--4--4-4--------------|
G||--4---------------------|--3----------------------|
D||--3---------------------|--2----------------------|
A||--4---------------------|--3----------------------|
E||------------------------|-------------------------|


  B9+/5+                         C7   C#7  D7      G                 
------------3----3-------|----------------------|-------------------|
--3--3--3-3--------------|----------------------|--3----------------|
--2----------------------|--5----3----4----5----|--4----------------|
--1-------------------2--|--4----2----3----4----|--5----------------|
--2----------------------|----------------------|--5----------------|
-------------------------|-------3----4----5----|-------------------|


                        G6                                              
---------------------|------------------------|-------------7------10--|
---------------------|------------------------|--------8---------------|
--7~-----7~----------|--7---------------------|-----9------------------|
----------------9----|------------------------|--9---------------------|
---------------------|---------10------7--10--|------------------------|
---------------------|------------------------|------------------------|


  D9                                               G                       
------8-----------------|------9b---8p-7--------|------------------7--10--|
-----------10--8--------|-----------------8-----|---------------8---------|
------------------9--7--|--------------------7--|------------7------------|
------------------------|-----------------------|--9------9---------------|
------------------------|-----------------------|-------------------------|
------------------------|-----------------------|-------------------------|


  D9                    G                                                
--8------------------|---------------------|-----------------------7----|
---------------------|---------------------|------------8----10---------|
-----------7------6/-|--7----8----9--------|------7--9------------------|
---------------------|---------------------|----------------------------|
---------------------|---------------------|----------------------------|
---------------------|---------------------|----------------------------|


  G6                                                         
--10----7----10----7h-10p-7------|-------------7---------7--|
---------------------------------|------8--10-----8/-10-----|
---------------------------------|--------------------------|
---------------------------------|--------------------------|
---------------------------------|--------------------------|
---------------------------------|--------------------------|


  D9                                                          
--10----7----10----7h-10p-7------|----------7--10--7---------|
---------------------------------|------10------------10--7--|
---------------------------------|---------------------------|
---------------------------------|---------------------------|
---------------------------------|---------------------------|
---------------------------------|---------------------------|


  G          C7           G                      Em                       
-----------------------|----------------5--6--|--7/-5--3-----------------|
--8~-------------------|----------7--8--------|-----------5--------------|
-------7---------------|----------------------|--------------4-----4-----|
----------9--8----8----|----------------------|-----------------5-----5--|
-----------------------|----------------------|--------------------------|
-----------------------|----------------------|--------------------------|


  Em7M                       Em7                    
--------3-----------3--7--|----12----------11--12--|
--4--5--------4--5--------|------------------------|
-----------0--------------|------------------------|
--------------------------|------------------------|
--------------------------|------------------------|
--------------------------|------------------------|


  Em6                        Em                Em7M       
--14--12----14b-------14--|--12--------------------------|
--------------------------|--------12--------------------|
--------------------------|--------------12--------------|
--------------------------|--------------------14~-------|
--------------------------|------------------------------|
--------------------------|------------------------------|


  Em7           Em6            D7          C#7              
--14b---14--12----------14b-|------14--12------------------|
----------------12----------|--------------13--------------|
----------------------------|------------------14--11------|
----------------------------|--------------------------14--|
----------------------------|------------------------------|
----------------------------|------------------------------|


  D7                          G                          
---------------------------|----10----10----------------|
---------------------------|--------------13~---12--13--|
---------------------------|----------------------------|
--12--10-------------------|----------------------------|
----------12--9------------|----------------------------|
-----------------10--------|----------------------------|


                                                                          
----10----------10--10--|----10--------------------|----10------9b-------|
------------------------|------------13----12--13--|---------------------|
------------------------|--------------------------|---------------------|
------------------------|--------------------------|---------------------|
------------------------|--------------------------|---------------------|
------------------------|--------------------------|---------------------|


  D7                                             G6                      
-------------------|----10----8---------------|------------------7--10--|
-------------------|-------------10--8--------|--8------------8---------|
----------7--------|--------------------9--7--|------------7------------|
-------------------|--------------------------|---------9---------------|
-------------------|--------------------------|-------------------------|
-------------------|--------------------------|-------------------------|


  D/5+                                          G                          
--8--12--10h-12p-10h-12p-10h-12p-10h-12p-10h-|--12--------15--14--17--14--|
---------------------------------------------|----------------------------|
---------------------------------------------|----------------------------|
---------------------------------------------|----------------------------|
---------------------------------------------|----------------------------|
---------------------------------------------|----------------------------|


                                     G6                       
--15--14--17--14--15--14--17--14--|--15----------------------|
----------------------------------|------15--12--------------|
----------------------------------|----------------12--------|
----------------------------------|--------------------------|
----------------------------------|--------------------------|
----------------------------------|--------------------------|


                                     D9                           
-------------7--10/-14----12------|------------------------------|
----------8-------------------13--|------------------------------|
-------7--------------------------|--14~---11--------------------|
----9-----------------------------|------------14--12/-10--------|
----------------------------------|------------------------12----|
----------------------------------|------------------------------|


                               
--------------15--15--15--15--|
------------------------------|
------------------------------|
------------------------------|
------------------------------|
--10--------------------------|


  G                                                
--14h-15p-14--13h-14p-13--12h-13p-12--11h-12p-11--|
--------------------------------------------------|
--------------------------------------------------|
--------------------------------------------------|
--------------------------------------------------|
--------------------------------------------------|


  D9                                       
--10h-11p-10--9h-10p-9--8h-9p-8--7h-8p-7--|
------------------------------------------|
------------------------------------------|
------------------------------------------|
------------------------------------------|
------------------------------------------|


  G                                    
--6h-7p-6--5h-6p-5--4h-5p-4--3h-4p-3--|
--------------------------------------|
--------------------------------------|
--------------------------------------|
--------------------------------------|
--------------------------------------|


                                         G6                                 
--2h-3p-2--1--1--1--1--1p-0--0--0--0--|------------------------------------|
--------------------------------1--1--|------------------------------------|
--------------------------------------|----0--0--0--0--0--0----------------|
--------------------------------------|----------------------2--2--2-2-2-2-|
--------------------------------------|------------------------------------|
--------------------------------------|------------------------------------|


                              D9                       
-------------------0----0--|--0--0--0--0--0--0--0--0--|
-------------------5----5--|--5--5--5--5--5--5--5--5--|
---------------------------|--------------------------|
--2-2-2-2-2-2-2------------|--------------------------|
---------------------------|--------------------------|
---------------------------|--------------------------|


                           G           D/5+        G                  
--0--0--0--5--5b--------|-----------------------|--------------------|
--5--5--5------------8--|--5--------------------|--------------------|
------------------------|-----7--------7--------|--------------------|
------------------------|--------8/-9-----------|--------------------|
------------------------|-----------------------|--10----------------|
------------------------|-----------------------|--------------------|


  Em                     Em7M                     Em7                
--7------9------11----|----12------14----12----|--15/---------------|
----------------------|------------------------|--------------------|
--4------6------8-----|----9-------11----9-----|--12/---------------|
----------------------|------------------------|--------------------|
----------------------|------------------------|--------------------|
----------------------|------------------------|--------------------|


  Em6                   Em      Em7M             Em7     Em6            
----------9----11----|--14------12------11----|--14------12------11----|
---------------------|------------------------|------------------------|
----------6----8-----|--11------9-------8-----|--11------9-------8-----|
---------------------|------------------------|------------------------|
---------------------|------------------------|------------------------|
---------------------|------------------------|------------------------|


  D7          C#7            D7                       
--14----12----14----12----|--14----12--14----14------|
--------------------------|--------------------------|
--11----9-----11----9-----|--11----9---11----11------|
--------------------------|--------------------------|
--------------------------|--------------------------|
--------------------------|--------------------------|


  G                                                                 
-------------0--2--3--2--0--|-----0--2--3--2--0-----0--2--3--2--0--|
----------3-----------------|--3-----------------3-----------------|
----------------------------|--------------------------------------|
----------------------------|--------------------------------------|
----------------------------|--------------------------------------|
----------------------------|--------------------------------------|


                                       
-----0--2--3--2--0-----0--2--3--2--0--|
--3-----------------3-----------------|
--------------------------------------|
--------------------------------------|
--------------------------------------|
--------------------------------------|


                                         D7         Gdim    
--------------------------------------|--------------------|
--3--2--1--0--3--2--1--0--------------|-------------2------|
--------------------------2--0--------|-------------3------|
--------------------------------4--2--|--0----------2------|
--------------------------------------|--------------------|
--------------------------------------|--------------------|


  G#dim   Adim A#dim       G6               
--4----4--5----6------|----3--------------||
--3----3--4----5------|----5--------------||
--4----4--5----6------|----4--------------||
--3----3--4----5------|----5--------------||
----------------------|-------------------||
----------------------|----3--------------||



            
            
Suggest correction
Creating personal tab
Creating personal tab
You can edit any tab online and save it as your Personal.

You can edit, replace or remove any tab part or add personal notes – all changes will be seen only by you.

Personal tabs can be accessed anytime from any device, even offline.
Learn more »
Give kudos to tab author, rate the tab!
1 2 3 4 5
comments
print report bad tab
guest
Wanna post a correction for this tab? Suggest correction