Oops, an error
Loading. Please wait.

Landlord Is Dead tab

version 3
version 3

Whole song

3,686 views 3 this week
1 commentread comment
1 2 3 4 5
x 5
add to favorites
×
Save as Personal and add changes to this tab that will be seen only by you. Learn more ›
×
You can save this tab as Personal to edit and correct it or add notes. All changes will be seen only by you. Learn more »
launch autoscroll
font size
0
reset
how to read this tab
guitar tuner
edit
Autoscroll
slow
fast
+/-
esc
set tempo
stop
Author
Difficulty
-------------------------------------------------------------------------------
                             The Landlord is Dead - Do Make Say Think
-------------------------------------------------------------------------------
Tabbed by: Seanie McDonald (Cork, Ireland)

Tuning: e
        B
        G#
        D#
        A
        E
Just play the strings open and it already sounds like Do Make Say Think!
It is possible to play this song in standard tuning, apart from the harmonics part 
only occurs twice in the song anyway). Plus it's easier in this tuning.

The rythm of this song can be confusing, but just play along with the
track and it should fall into place. I've tried to space the notes
roughly in time with how they're played.

Main riff, Guitar 1:
e |-----------------------------------------------|
B |-----0---------0---------0--------0------------|
G#|-------0---------0---------0--------0----------|
C#|--0--------00----------------------------------|
A |----------------------3-------30---------------|
E |-----------------------------------------4--0--|
                                            Bend up 1/4 on 4th fret

Variation:
This measure is thrown in every now and then. Sometimes, particularly
in the heavy bit, the two are parts are blended.
e |-----------------------------------------------|
B |-----------------------------------------------|
G#|-----0---------0--------0---------0------------|
C#|--0----0----0----0--------0---------0----------|
A |---------------------3--------30---------------|
E |-----------------------------------------4--0--|
                                            Bend up 1/4 on 4th fret

Bridge/Outro:
The harmonics are notated with a '+' sign after them.
This is where the alternative tuning is necessary. It's played once
about half way through the track, then there's one measure of guitar 1
solo before it gets heavy. Then it's played again right at the end of
the track.
e |-----------------------------------------------|
B |--------------------------------0--------------|
G#|-------7+--------------------------0-----------|
C#|--12+--7+--7+----------------5--------7+-------|
A |--12+------7+----------------6--------7+-------|
E |-----------------------------------------------|

If you want to get technical about the rythm, there are fourteen
beats to each measure, with a shuffle rythm to each beat!
I wouldn't bother trying to count though. Just play along and enjoy.
Have fun.

            
            
Suggest correction
Creating personal tab
Creating personal tab
You can edit any tab online and save it as your Personal.

You can edit, replace or remove any tab part or add personal notes – all changes will be seen only by you.

Personal tabs can be accessed anytime from any device, even offline.
Learn more »
comments
print report bad tab
1 comment total.
-1 reply
newg [tm] 50,142 Apr 04, 2015 02:00 AM

didn't like this contribution

guest
You may want to rate the tab now too:
select rating
Wanna post a correction for this tab? Suggest correction