Oops, an error
Loading. Please wait.

Dear Happy tab

2,800 views 54 this week
no commentswrite comment
1 2 3 4 5
x 6
add to favorites
×
Save as Personal and add changes to this tab that will be seen only by you. Learn more ›
×
You can save this tab as Personal to edit and correct it or add notes. All changes will be seen only by you. Learn more »
launch autoscroll
font size
0
reset
how to read this tab
guitar tuner
edit
Autoscroll
slow
fast
+/-
esc
set tempo
stop
Author
Difficulty
About this tab version
This song was originally played on the ukulele. There is not much change chord wise from the original, but there is room for strumming some parts instead of plucking. Was this info helpful? Yes No
Dear Happy- Dodie Clark
Tabbed by: nightdreams

 For timing, watch the 'Dear Happy' video on Youtube.


[Intro]    
   G         G
e|-------------------------|
B|-----0--0----0--0--------|
G|-------------------------|
D|-----0--0----0--0--------|
A|-------------------------|
E|--3--------3-------------|

[Verse 1]   
   G        B7        C        D7
e|-----------------------------------------------------|
B|-----0--0-----0--0-----1--1-----1--1-----------------|   
G|-----------------------------------------------------|
D|-----0--0-----0--0-----2--2-----0--0-----------------|       
A|-----------2--------3--------0-----------------------|  x2
E|--3--------------------------------------------------|
   I miss you dearly...
   Is our time fleeting...

[Chorus]
   G        B7        C        A#dim7
e|------------------------------0-----------------|
B|-----0--0-----0--0-----1--1---2-----------------|   
G|------------------------------0-----------------|
D|-----0--0-----0--0-----2--2---2-----------------|       
A|-----------2--------3---------1-----------------|  
E|--3---------------------------x-----------------|
   Don't try to fight it...

   G     A#dim7   D7   G      G
e|-----------0----2--------------------------------------------|
B|-----0--0--2----1-----0--0-----0--0--------------------------|
B|-----0--0--0----2--------------------------------------------|
D|-----0--0--2----0-----0--0-----0--0--------------------------|
A|-----------1----x--------------------------------------------|
E|--3--------x----x--3--------3--------------------------------|
    And I'll be waiting for you...

[Verse 2]
   G        B7        C        D7
e|-----------------------------------------------------|
B|-----0--0-----0--0-----1--1-----1--1-----------------|   
G|-----------------------------------------------------|
D|-----0--0-----0--0-----2--2-----0--0-----------------|       
A|-----------2--------3--------0-----------------------|  x2
E|--3--------------------------------------------------|
    I know it's scary...  
    This isn't the end...

[Chorus]
   G        B7        C        A#dim7
e|------------------------------0-----------------|
B|-----0--0-----0--0-----1--1---2-----------------|   
G|------------------------------0-----------------|
D|-----0--0-----0--0-----2--2---2-----------------|       
A|-----------2--------3---------1-----------------|  
E|--3---------------------------x-----------------|
   Don't try to fight it...

   G     A#dim7   D7   G      G
e|-----------0----2--------------------------------------------|
B|-----0--0--2----1-----0--0-----0--0--------------------------|
B|-----0--0--0----2--------------------------------------------|
D|-----0--0--2----0-----0--0-----0--0--------------------------|
A|-----------1----x--------------------------------------------|
E|--3--------x----x--3--------3--------------------------------|
    And I'll be waiting for you...ooh

*The humming part*

You can either strum or just do the same picking pattern that you do in the verse.

C Cm G G7
C Cm D D7* (*single strum)

(strum once)

G B7 C D7
Would you mind staying...

[Chorus]
   G        B7        C        A#dim7
e|------------------------------0-----------------|
B|-----0--0-----0--0-----1--1---2-----------------|   
G|------------------------------0-----------------|
D|-----0--0-----0--0-----2--2---2-----------------|       
A|-----------2--------3---------1-----------------|  
E|--3---------------------------x-----------------|
   Don't try to fight it...

   G     A#dim7   D7   G      G
e|-----------0----2--------------------------------------------|
B|-----0--0--2----1-----0--0-----0--0--------------------------|
B|-----0--0--0----2--------------------------------------------|
D|-----0--0--2----0-----0--0-----0--0--------------------------|
A|-----------1----x--------------------------------------------|
E|--3--------x----x--3--------3--------------------------------|
    And I'll be waiting for you...

 G     A#dim7   D7     G
e|-----------0----2----3------------------------------------|
B|-----0--0--2----1----0------------------------------------|
B|-----0--0--0----2----0------------------------------------|
D|-----0--0--2----0----0------------------------------------|
A|-----------1----x----2------------------------------------|
E|--3--------x----x----3------------------------------------|
    And I'll be waiting for you...



************************************

| x  Dead note

************************************

            
            
Suggest correction
Creating personal tab
Creating personal tab
You can edit any tab online and save it as your Personal.

You can edit, replace or remove any tab part or add personal notes – all changes will be seen only by you.

Personal tabs can be accessed anytime from any device, even offline.
Learn more »
comments
print report bad tab
guest
You may want to rate the tab now too:
select rating
Wanna post a correction for this tab? Suggest correction