Oops, an error
Loading. Please wait.

Intertwined tab

13,123 views 186 this week
2 commentsread comments
1 2 3 4 5
x 51
add to favorites
×
Save as Personal and add changes to this tab that will be seen only by you. Learn more ›
×
You can save this tab as Personal to edit and correct it or add notes. All changes will be seen only by you. Learn more »
launch autoscroll
font size
0
reset
how to read this tab
guitar tuner
edit
Autoscroll
slow
fast
+/-
esc
set tempo
stop
Author
Difficulty
video here: https://www.youtube.com/watch?v=4TJxmsj1lUg


*This song is played on a baritone ukulele, which is tuned like the highest four strings on a guitar.


There are two main chord progressions, one for the verse and one for the chorus.

In the verses, the four main chords are:
      G   Bm  Am  D7
e |---3---2---0---2---
B |---0---3---1---1---
G |---0---4---2---2---
D |---0---0---2---0---
and Dodie does some fancy fingerings while switching between them, which I've tabbed out below.

In the chorus, there are six chords, four of which are above. The two new chords are:
      C  D#/G
e |---0---3---
B |---5---4---
G |---5---3---
D |---5---5---
(The second can be barred on 3)

These chords are in the key of G and for an EADGBe guitar.
To play in C (or on a GCEA uke), you can use these:

   C  Em  Dm  G7  for verses
   F  Ab/C  for chorus


Picking pattern:

e | -----x-x---x-x---x-x---x-x---
B | -----x-x---x-x---x-x---x-x---  (etc.)
G | -----x-x---x-x---x-x---x-x---
D | ---x-----x-----x-----x-------


~~~~~~~~~~~~~~~~~~~~~~~~~~~~~~~~~~~~~~~~~~~~~~~~~~~~~~~~~~~~~~~~~~~~~~~~~~~~~~~~~~~~~~~~~~~~~~~~~~~~~~~~~~~~~~


Intertwined, by dodie / Dodie Clark / doddleoddle


Intro:

e | -----3-3---3-3---3-3---3-3---
B | -----0-0---0-0---0-0---3-1---   (x2)
G | -----0-0---0-0---0-0---0-0---
D | ---0-----0-----0-----0-------


Verse:

e | -----3-3---3-3---3-3---3-2---2-2---2-2---2-2---2-1---
B | -----0-0---0-0---0-0---0-0---3-3---3-3---3-3---3-2--- 
G | -----0-0---0-0---0-0---0-0---4-4---4-4---4-4---4-3---
D | ---0-----0-----0-----0-----0-----0-----0-----0-------

       skin                      heat

e | -----0-0---0-0---0-0---0-0---2-2---2-2---2-2---2-2---
B | -----1-1---1-1---1-1---1-1---1-1---1-1---1-1---1-1---
G | -----2-2---2-2---2-2---2-2---2-2---2-2---2-2---2-2---
D | ---2-----2-----2-----2-----0-----0-----0-----0-------

       hair in your mouth,     feet touching feet, oh

e | -----3-3---3-3---3-3---3-2---2-2---2-2---2-2---2-1---
B | -----0-0---0-0---0-0---0-0---3-3---3-3---3-3---3-2--- 
G | -----0-0---0-0---0-0---0-0---4-4---4-4---4-4---4-3---
D | ---0-----0-----0-----0-----0-----0-----0-----0-------

       you,              and    i

e | -----0-0---0-0---0-0---0-0---2-2---2-2---2-2---2-2---
B | -----1-1---1-1---1-1---1-1---1-1---1-1---1-1---1-1---
G | -----2-2---2-2---2-2---2-2---2-2---2-2---2-2---2-2---
D | ---2-----2-----2-----2-----0-----0-----0-----0-------

       safe from the world, though the world will try


Chorus:

e | -----0-0---0-0---0-0---0-0---3-3---3-3---3-3---------
B | -----5-5---5-5---5-5---5-5---4-4---4-4---4-4---------
G | -----5-5---5-5---5-5---5-5---3-3---3-3---3-3---------
D | ---5-----5-----5-----5-----5-----5-----5-----5-------

     oh,      i’m afraid  of the things in my brain

e | -----3-3---3-3---0-0---0-0---0-0---0-0---2-2---------
B | -----0-0---0-0---0-0---0-0---1-1---1-1---1-1---------
G | -----0-0---0-0---0-0---0-0---2-2---2-2---2-2---------
D | ---0-----0-----2-----2-----2-----2-----0-----0-------

   but we can stay here, and laugh away the fear


Verse:

e | -----3-3---3-3---3-3---3-2---2-2---2-2---2-2---2-1---
B | -----0-0---0-0---0-0---0-0---3-3---3-3---3-3---3-2---
G | -----0-0---0-0---0-0---0-0---4-4---4-4---4-4---4-3---
D | ---0-----0-----0-----0-----0-----0-----0-----0-------

       numb                      fine             you cre -

e | -----0-0---0-0---0-0---0-0---2-2---2-2---2-2---2-2---
B | -----1-1---1-1---1-1---1-1---1-1---1-1---1-1---1-1---
G | -----2-2---2-2---2-2---2-2---2-2---2-2---2-2---2-2---
D | ---2-----2-----2-----2-----0-----0-----0-----0-------

    - ate        a rarity  of my genuine smiles, so

e | -----3-3---3-3---3-3---3-2---2-2---2-2---2-2---2-1---
B | -----0-0---0-0---0-0---0-0---3-3---3-3---3-3---3-2---
G | -----0-0---0-0---0-0---0-0---4-4---4-4---4-4---4-3---
D | ---0-----0-----0-----0-----0-----0-----0-----0-------

    breathe              breathe with me          can you

e | -----0-0---0-0---0-0---0-0---2-2---2-2---2-2---2-2---
B | -----1-1---1-1---1-1---1-1---1-1---1-1---1-1---1-1---
G | -----2-2---2-2---2-2---2-2---2-2---2-2---2-2---2-2---
D | ---2-----2-----2-----2-----0-----0-----0-----0-------

       drink all my thoughts, cause i can’t stand


Bridge:

e | -----3-3---3-3---3-3---3-2---2-2---2-2---2-2---2-1---
B | -----0-0---0-0---0-0---0-0---3-3---3-3---3-3---3-2--- 
G | -----0-0---0-0---0-0---0-0---4-4---4-4---4-4---4-3---
D | ---0-----0-----0-----0-----0-----0-----0-----0-------

    them                       oh

e | -----0-0---0-0---0-0---0-0---2-2---2-2---2-2---------
B | -----1-1---1-1---1-1---1-1---1-1---1-1---1-1---------
G | -----2-2---2-2---2-2---2-2---2-2---2-2---2-2---------
D | ---2-----2-----2-----2-----0-----0-----0-----0-------

       oh ooh,                oh, oh, oh, oh


Verse:

e | -----3-3---3-3---3-3---3-2---2-2---2-2---2-2---2-1---
B | -----0-0---0-0---0-0---0-0---3-3---3-3---3-3---3-2--- 
G | -----0-0---0-0---0-0---0-0---4-4---4-4---4-4---4-3---
D | ---0-----0-----0-----0-----0-----0-----0-----0-------

       intertwined             free             i’ve pinned

e | -----0-0---0-0---0-0---0-0---2-2---2-2---2-2---------
B | -----1-1---1-1---1-1---1-1---1-1---1-1---1-1---------
G | -----2-2---2-2---2-2---2-2---2-2---2-2---2-2---------
D | ---2-----2-----2-----2-----0-----0-----0-----0-------

     each and every hope on you, i hope that you don’t bleed with


Chorus:

e | -----0-0---0-0---0-0---------3-3---3-3---3-3---------
B | -----5-5---5-5---5-5---------4-4---4-4---4-4---------
G | -----5-5---5-5---5-5---------3-3---3-3---3-3---------
D | ---5-----5-----5-----5-----5-----5-----5-----5-------

       me      i’m afraid of the things in my brain

e | -----3-3---3-3---0-0---0-0---0-0---0-0---2-2---------
B | -----0-0---0-0---0-0---0-0---1-1---1-1---1-1---------
G | -----0-0---0-0---0-0---0-0---2-2---2-2---2-2---------
D | ---0-----0-----2-----2-----2-----2-----0-----0-------

   but we can stay here     and laugh away the fear


End Bit:

e | -----3-3---3-3---3-3---3-2---2-2---2-2---2-2---2-1---
B | -----0-0---0-0---0-0---0-0---3-3---3-3---3-3---3-2---
G | -----0-0---0-0---0-0---0-0---4-4---4-4---4-4---4-3---
D | ---0-----0-----0-----0-----0-----0-----0-----0-------

       mmm                     mmm

e | -----0-0---0-0---0-0---0-0---2-2---2-2---2-2-------3-
B | -----1-1---1-1---1-1---1-1---1-1---1-1---1-1-------0-
G | -----2-2---2-2---2-2---2-2---2-2---2-2---2-2-------0-
D | ---2-----2-----2-----2-----0-----0-----0-----0-----0-

       mmm                     mmmm                 [strum]





            
            
Suggest correction
Creating personal tab
Creating personal tab
You can edit any tab online and save it as your Personal.

You can edit, replace or remove any tab part or add personal notes – all changes will be seen only by you.

Personal tabs can be accessed anytime from any device, even offline.
Learn more »
comments
print report bad tab
2 comments total.
+4 reply
agoutier 10 Apr 19, 2017 10:45 PM

Great tab

0 reply
avari3000 60 Aug 23, 2017 03:21 PM

love this song!!

guest
You may want to rate the tab now too:
select rating
Wanna post a correction for this tab? Suggest correction