Oops, an error
Loading. Please wait.

Little Mosquito ukulele

version 4
version 4

Whole song

1,507 views 6 this week
no commentswrite comment
1 2 3 4 5
2 more votes to show rating
add to favorites
×
Save as Personal and add changes to this tab that will be seen only by you. Learn more ›
×
You can save this tab as Personal to edit and correct it or add notes. All changes will be seen only by you. Learn more »
launch autoscroll
font size
0
reset
transpose
0
reset
display chords
guitar tuner
edit
Autoscroll
slow
fast
+/-
esc
set tempo
stop
Author
Strumming
There is no strumming pattern for this song yet. and get +5 IQ
[Intro]

G|---8---8---|
C|---7---8---|
E|---6---6---|(x4)
A|---6---6---|


[Verse 1]

G|---8------8---|
C|---7------8---|
E|---6------6---|
A|---6------6---|
     Little Mosquito

G|---8----------8---|
C|---7----------8---|
E|---6----------6---|
A|---6----------6---|
     Get off my arm

G|---8-----------8-------------8-------8-|
C|---7-----------8-------------7-------8-|
E|---6-----------6-------------6-------6-|
A|---6-----------6-------------6-------6-|
     You are not welcome there today

G|---8--------8---|
C|---7--------8---|
E|---6--------6---|
A|---6--------6---|
     I am not happy

G|---8--------8---|
C|---7--------8---|
E|---6--------6---|
A|---6--------6---|
     To share my blood

G|---8-----------8-------------8-------8-|
C|---7-----------8-------------7-------8-|
E|---6-----------6-------------6-------6-|
A|---6-----------6-------------6-------6-|
     I wish that you'd just go away


[Bridge]

G|---7------------------------5-------|
C|---5------------------------3-------|
E|---6------------------------4-------|
A|---5------------------------3-------|
     If you wanted ice cream I'd reckon we'd be friends


G|---7---------------------------------5-------|
C|---5---------------------------------3-------|
E|---6---------------------------------4-------|
A|---5---------------------------------3-------|
     We'd get along quite nicely cause you would not depend on


[Chorus]

G|----8-------------7--------5-------|
C|----7-------------5--------3-------|
E|----6-------------6--------4-------|
A|----6-------------5--------3-------|
      Sucking on my vein and buzzing round my room

G|----8----------------7-----------------5-------|
C|----7----------------5-----------------3-------|
E|----6----------------6-----------------4-------|
A|----6----------------5-----------------3-------|
      I've been bitten thirty times it's only afternoon

G|----0-------------------------------------------3---------------|
C|----3-------------------------------------------2---------------|
E|----3-------------------------------------------1---------------|
A|----3-------------------------------------------1---------------|
                                                 ***
      And all these little lumps and bumps, can't stand it anymore

G|-----5------------------7--------8-------|
C|-----3------------------5--------8-------|
E|-----4------------------6--------7-------|
A|-----3------------------5--------6-------|
You've made me stratch my skin red raw


[Verse 2]

G|---8------8---|
C|---7------8---|
E|---6------6---|
A|---6------6---|
     Little Mosquito

G|---8----------8---|
C|---7----------8---|
E|---6----------6---|
A|---6----------6---|
     Get off my leg

G|-----------8------------8--------8-------8-|
C|-----------7------------8--------7-------8-|
E|-----------6------------6--------6-------6-|
A|-----------6------------6--------6-------6-|
I've already had too much antihistamine

G|---8-----------8---|
C|---7-----------8---|
E|---6-----------6---|
A|---6-----------6---|
  Im not your pincushion

G|---8-------------8---|
C|---7-------------8---|
E|---6-------------6---|
A|---6-------------6---|
     i know you're hungry but

G|---8--------8------------------8-------8-|
C|---7--------8------------------7-------8-|
E|---6--------6------------------6-------6-|
A|---6--------6------------------6-------6-|
       Bit me one more time I'll scream


[Bridge]

G|---7------------------------5-------|
C|---5------------------------3-------|
E|---6------------------------4-------|
A|---5------------------------3-------|
     If you wanted ice cream I'd reckon we'd be friends


G|---7---------------------------------5-------|
C|---5---------------------------------3-------|
E|---6---------------------------------4-------|
A|---5---------------------------------3-------|
     We'd get along quite nicely cause you would not depend on


[Chorus]

G|----8-------------7--------5-------|
C|----7-------------5--------3-------|
E|----6-------------6--------4-------|
A|----6-------------5--------3-------|
      Sucking on my vein and buzzing round my room

G|----8----------------7-----------------5-------|
C|----7----------------5-----------------3-------|
E|----6----------------6-----------------4-------|
A|----6----------------5-----------------3-------|
      I've been bitten thirty times it's only afternoon

G|----0-------------------------------------------3---------------|
C|----3-------------------------------------------2---------------|
E|----3-------------------------------------------1---------------|
A|----3-------------------------------------------1---------------|
      And all these little lumps and bumps, can't stand it anymore

G|-----5------------------7--------8-------|
C|-----3------------------5--------8-------|
E|-----4------------------6--------7-------|
A|-----3------------------5--------6-------|
You've made me stratch my skin red raw


[Verse 3]

G|---8---8---|
C|---7---8---|
E|---6---6---|(x4)
A|---6---6---|

G|---8------8---|
C|---7------8---|
E|---6------6---|
A|---6------6---|
     Little Mosquito

G|---8----------8---|
C|---7----------8---|
E|---6----------6---|
A|---6----------6---|
     this is a  shoe

G|---8-------------------8--------8------------8-|
C|---7-------------------8--------7------------8-|
E|---6-------------------6--------6------------6-|
A|---6-------------------6--------6------------6-|
      It'll be on top of you      if you don't move

G|---8------------|
C|---7------------|
E|---6------------|
A|---6------------|
     Pretty soon.... Cause


[Bridge]

G|---7------------------------5-------|
C|---5------------------------3-------|
E|---6------------------------4-------|
A|---5------------------------3-------|
     If you wanted ice cream I'd reckon we'd be friends


G|---7---------------------------------5-------|
C|---5---------------------------------3-------|
E|---6---------------------------------4-------|
A|---5---------------------------------3-------|
     We'd get along quite nicely cause you would not depend on


[Chorus]

G|----8-------------7--------5-------|
C|----7-------------5--------3-------|
E|----6-------------6--------4-------|
A|----6-------------5--------3-------|
      Sucking on my vein and buzzing round my room

G|----8----------------7-----------------5-------|
C|----7----------------5-----------------3-------|
E|----6----------------6-----------------4-------|
A|----6----------------5-----------------3-------|
      I've been bitten thirty times it's only afternoon

G|----0-------------------------------------------3---------------|
C|----3-------------------------------------------2---------------|
E|----3-------------------------------------------1---------------|
A|----3-------------------------------------------1---------------|
      And all these little lumps and bumps, can't stand it anymore

G|-----5------------------7--------|
C|-----3------------------5--------|
E|-----4------------------6--------|
A|-----3------------------5--------|
You've made me stratch my skin red


G|---8---8---8---8-|
C|---7---8---7---8-|
E|---6---6---6---6-|
A|---6---6---6---6-|
     Raw

G|----0-------------------------------------------3---------------|
C|----3-------------------------------------------2---------------|
E|----3-------------------------------------------1---------------|
A|----3-------------------------------------------1---------------|
                                                 ***
      And all these little lumps and bumps, can't stand it anymore

G|-----5------------------7--------8------8-|
C|-----3------------------5--------7------7-|
E|-----4------------------6--------6------6-|
A|-----3------------------5--------6------6-|
You've made me stratch my skin red raw.  (Final last strum)

            
            
Suggest correction
Creating personal tab
Creating personal tab
You can edit any tab online and save it as your Personal.

You can edit, replace or remove any tab part or add personal notes – all changes will be seen only by you.

Personal tabs can be accessed anytime from any device, even offline.
Learn more »
Give kudos to tab author, rate the tab!
1 2 3 4 5
comments
print report bad tab
guest
You may want to rate the tab now too:
select rating
Wanna post a correction for this tab? Suggest correction