Oops, an error
Loading. Please wait.

She tab

version 1
version 1

Whole song

8,842 views 111 this week
no commentswrite comment
1 2 3 4 5
x 15
add to favorites
×
Save as Personal and add changes to this tab that will be seen only by you. Learn more ›
×
You can save this tab as Personal to edit and correct it or add notes. All changes will be seen only by you. Learn more »
launch autoscroll
font size
0
reset
how to read this tab
guitar tuner
edit
Autoscroll
slow
fast
+/-
esc
set tempo
stop
-------------------------------------------------------------------------------
                             She - Doddleoddle
-------------------------------------------------------------------------------

Tuning:  D A D F♯ A D (Open D)

I tried to indicate the strumming pattern (one number is one quarter note), but
you'll have to listen to the song to work it out exactly. I couldn't quite get
the text to match with the tab, but once again, just listen to the song.
Also, there is an easier way to fret all chords where the bottom strings are the
same, such as the first fretted chord (the 4-finger one): Simply use your thumb.

  Intro:
d |---0---0---0---0---0---0---0---0--|
A |---0---0---0---0---0---0---0---0--|
F#|---0---0---0---0---0---0---0---0--|
D |---0---0---0---0---0---0---0---0--|
A |---0---0---0---0---0---0---0---0--|
D |---0---0---0---0---0---0---0---0--|
                              

  Verse 1:
d |---0---0---0---0---0---0---0---0---0---0---0---0---0---0---0---0--|
A |---0---0---0---0---0---0---0---0---0---0---0---0---0---0---0---0--|
F#|---0---0---0---0---0---0---0---0---5---5---5---5---5---5---5---5--|
D |---0---0---0---0---0---0---0---0---5---5---5---5---5---5---5---5--|
A |---0---0---0---0---0---0---0---0---5---5---5---5---5---5---5---5--|
D |---0---0---0---0---0---0---0---0---5---5---5---5---5---5---5---5--|
    Am I allowed to look at her like that

d |---0---0---0---0---0---0---0---0---0---0---0---0---0---0---0---0--|
A |---0---0---0---0---0---0---0---0---0---0---0---0---0---0---0---0--|
F#|---0---0---0---0---0---0---0---0---5---5---5---5---5---5---5---5--|
D |---0---0---0---0---0---0---0---0---5---5---5---5---5---5---5---5--|
A |---0---0---0---0---0---0---0---0---5---5---5---5---5---5---5---5--|
D |---0---0---0---0---0---0---0---0---5---5---5---5---5---5---5---5--|
    Could it be wrong when she's just so nice to look at


  Chorus:
d |---0---0---0---0---0---0---0---0--|
A |---0---0---0---0---0---0---0---0--|
F#|---8---8---0---0---5---5---5---5--|
D |---9---9---7---7---5---5---5---5--|
A |---9---9---7---7---5---5---5---5--|
D |---9---9---7---7---5---5---5---5--|
    And she smells like lemongrass and sleep

d |---0---0---0---0---0---0---0---0--|
A |---0---0---0---0---0---0---0---0--|
F#|---8---8---0---0---5---5---5---5--|
D |---9---9---7---7---5---5---5---5--|
A |---9---9---7---7---5---5---5---5--|
D |---9---9---7---7---5---5---5---5--|
    She tastes like apple juice and peach

d |---0---0---0---0---0---0---0---0---0---0---0---0---0---0--|
A |---0---0---0---0---0---0---0---0---0---0---0---0---0---0--|
F#|---8---8---0---0---0---0---5---5---5---5---5---5---5---5--|
D |---9---9---7---7---4---4---5---5---5---5---5---5---5---5--|
A |---9---9---7---7---4---4---5---5---5---5---5---5---5---5--|
D |---9---9---7---7---4---4---5---5---5---5---5---5---5---5--|
    You would find her in a polaroid picture

d |---0---0---0---0---0---0---0---0---0---0---0---0---0---0---0---0--|
A |---0---0---0---0---0---0---0---0---0---0---0---0---0---0---0---0--|
F#|---7---7---7---7---7---7---7---7---5---5---5---5---5---5---5---5--|
D |---7---7---7---7---7---7---7---7---5---5---5---5---5---5---5---5--|
A |---7---7---7---7---7---7---7---7---5---5---5---5---5---5---5---5--|
D |---7---7---7---7---7---7---7---7---5---5---5---5---5---5---5---5--|
    And she            means everything to me


  Post-Chorus 1:
d |---0---0---0---0---0---0---0---0--|
A |---0---0---0---0---0---0---0---0--|
F#|---0---0---0---0---0---0---0---0--|
D |---0---0---0---0---0---0---0---0--|
A |---0---0---0---0---0---0---0---0--|
D |---0---0---0---0---0---0---0---0--|
    Oohhh


  Verse 2:
d |---0---0---0---0---0---0---0---0---0---0---0---0---0---0---0---0--|
A |---0---0---0---0---0---0---0---0---0---0---0---0---0---0---0---0--|
F#|---0---0---0---0---0---0---0---0---5---5---5---5---5---5---5---5--|
D |---0---0---0---0---0---0---0---0---5---5---5---5---5---5---5---5--|
A |---0---0---0---0---0---0---0---0---5---5---5---5---5---5---5---5--|
D |---0---0---0---0---0---0---0---0---5---5---5---5---5---5---5---5--|
   I'd never tell, no I'd never say a word

d |---0---0---0---0---0---0---0---0---0---0---0---0---0---0---0---0--|
A |---0---0---0---0---0---0---0---0---0---0---0---0---0---0---0---0--|
F#|---0---0---0---0---0---0---0---0---5---5---5---5---5---5---5---5--|
D |---0---0---0---0---0---0---0---0---5---5---5---5---5---5---5---5--|
A |---0---0---0---0---0---0---0---0---5---5---5---5---5---5---5---5--|
D |---0---0---0---0---0---0---0---0---5---5---5---5---5---5---5---5--|
    And oh it aches, but it feels oddly good to hurt

  Chorus 2:

d |---0---0---0---0---0---0---0---0--|
A |---0---0---0---0---0---0---0---0--|
F#|---8---8---0---0---5---5---5---5--|
D |---9---9---7---7---5---5---5---5--|
A |---9---9---7---7---5---5---5---5--|
D |---9---9---7---7---5---5---5---5--|
    And she smells like lemongrass and sleep

d |---0---0---0---0---0---0---0---0--|
A |---0---0---0---0---0---0---0---0--|
F#|---8---8---0---0---5---5---5---5--|
D |---9---9---7---7---5---5---5---5--|
A |---9---9---7---7---5---5---5---5--|
D |---9---9---7---7---5---5---5---5--|
    She tastes like apple juice and peach

d |---0---0---0---0---0---0---0---0---0---0---0---0---0---0--|
A |---0---0---0---0---0---0---0---0---0---0---0---0---0---0--|
F#|---8---8---0---0---0---0---5---5---5---5---5---5---5---5--|
D |---9---9---7---7---4---4---5---5---5---5---5---5---5---5--|
A |---9---9---7---7---4---4---5---5---5---5---5---5---5---5--|
D |---9---9---7---7---4---4---5---5---5---5---5---5---5---5--|
    You would find her in a polaroid picture

d |---0---0---0---0---0---0---0---0---0---0---0---0---0---0---0---0--|
A |---0---0---0---0---0---0---0---0---0---0---0---0---0---0---0---0--|
F#|---7---7---7---7---7---7---7---7---5---5---5---5---5---5---5---5--|
D |---7---7---7---7---7---7---7---7---5---5---5---5---5---5---5---5--|
A |---7---7---7---7---7---7---7---7---5---5---5---5---5---5---5---5--|
D |---7---7---7---7---7---7---7---7---5---5---5---5---5---5---5---5--|
    And she            means everything to me


  Post-Chorus 2: x2
d |---0---0---0---0---0---0---0---0---0---0---0---0---0---0---0---0--|
A |---0---0---0---0---0---0---0---0---0---0---0---0---0---0---0---0--|
F#|---0---0---0---0---0---0---0---0---5---5---5---5---5---5---5---5--|
D |---0---0---0---0---0---0---0---0---5---5---5---5---5---5---5---5--|
A |---0---0---0---0---0---0---0---0---5---5---5---5---5---5---5---5--|
D |---0---0---0---0---0---0---0---0---5---5---5---5---5---5---5---5--|
    Ooohhh                        Oooohhhh

  Bridge:
d |----0-------0-------0--------------|
A |----0-------0-------0--------------|
F#|----8-------0-------5--------------|
D |----9-------7-------5--------------|
A |----9-------7-------5--------------|
D |----9-------7-------5--------------|
   And I'll be okay admiring from afar   

d |-----0---------------0-------------------0-------------------|
A |-----0---------------0-------------------0-------------------|
F#|-----8---------------0-------------------5-------------------|
D |-----9---------------7-------------------5-------------------|
A |-----9---------------7-------------------5-------------------|
D |-----9---------------7-------------------5-------------------|
  Cause even when she's next to me we could not be more far apart

d |---0---0---0---0---0---0---0---0---0---0---0---0---0---0---0--|
A |---0---0---0---0---0---0---0---0---0---0---0---0---0---0---0--|
F#|---8---8---8---8---8---0---0---0---0---0---0---0---0---5---5--|
D |---9---9---9---9---9---7---7---7---7---4---4---4---4---5---5--|
A |---9---9---9---9---9---7---7---7---7---4---4---4---4---5---5--|
D |---9---9---9---9---9---7---7---7---7---4---4---4---4---5---5--|
   Cause she tastes like birthday cake and storytime and fall

d |---0---0---0---0---0---0---0---0---0---0---0---0---0---0---0---0--|
A |---0---0---0---0---0---0---0---0---0---0---0---0---0---0---0---0--|
F#|---7---7---7---7---7---7---7---7---5---5---5---5---5---5---5---5--|
D |---7---7---7---7---7---7---7---7---5---5---5---5---5---5---5---5--|
A |---7---7---7---7---7---7---7---7---5---5---5---5---5---5---5---5--|
D |---7---7---7---7---7---7---7---7---5---5---5---5---5---5---5---5--|
   But to her                         I taste of nothing at all

  

  Chorus 3:

d |----0-------0-------0--------------|
A |----0-------0-------0--------------|
F#|----8-------0-------5--------------|
D |----9-------7-------5--------------|
A |----9-------7-------5--------------|
D |----9-------7-------5--------------|
   She smells like lemongrass and sleep

d |-----0----------0---------------0-------------------|
A |-----0----------0---------------0-------------------|
F#|-----8----------0---------------5-------------------|
D |-----9----------7---------------5-------------------|
A |-----9----------7---------------5-------------------|
D |-----9----------7---------------5-------------------|
   She tastes like apple juice and peach

d |---0-----------0-------0-----------0---5---5--|
A |---0-----------0-------0-----------0---5---5--|
F#|---8-----------0-------0-----------5---5---5--|
D |---9-----------7-------4-----------5---5---5--|
A |---9-----------7-------4-----------5---5---5--|
D |---9-----------7-------4-----------5---5---5--|
   You would find her in a polaroid picture

d |---0---0---0---0---0---0---0---0---0---0---0---0---0---0---0---0--|
A |---0---0---0---0---0---0---0---0---0---0---0---0---0---0---0---0--|
F#|---7---7---7---7---7---7---7---7---5---5---5---5---5---5---5---5--|
D |---7---7---7---7---7---7---7---7---5---5---5---5---5---5---5---5--|
A |---7---7---7---7---7---7---7---7---5---5---5---5---5---5---5---5--|
D |---7---7---7---7---7---7---7---7---5---5---5---5---5---5---5---5--|
   And she      means everything to me

d |---0---0---0---0---0---0---0---0---0---0---0---0---0---0---0---0--|
A |---0---0---0---0---0---0---0---0---0---0---0---0---0---0---0---0--|
F#|---7---7---7---7---7---7---7---7---5---5---5---5---5---5---5---5--|
D |---7---7---7---7---7---7---7---7---5---5---5---5---5---5---5---5--|
A |---7---7---7---7---7---7---7---7---5---5---5---5---5---5---5---5--|
D |---7---7---7---7---7---7---7---7---5---5---5---5---5---5---5---5--|
   Yes she       means everything to me

d |---0---0---0---0---0---0---0---0---0---0---0---0---0---0---0---0--|
A |---0---0---0---0---0---0---0---0---0---0---0---0---0---0---0---0--|
F#|---7---7---7---7---7---7---7---7---5---5---5---5---5---5---5---5--|
D |---7---7---7---7---7---7---7---7---5---5---5---5---5---5---5---5--|
A |---7---7---7---7---7---7---7---7---5---5---5---5---5---5---5---5--|
D |---7---7---7---7---7---7---7---7---5---5---5---5---5---5---5---5--|
   She             means everything to     me
 

            
            
Suggest correction
Creating personal tab
Creating personal tab
You can edit any tab online and save it as your Personal.

You can edit, replace or remove any tab part or add personal notes – all changes will be seen only by you.

Personal tabs can be accessed anytime from any device, even offline.
Learn more »
comments
print report bad tab
guest
You may want to rate the tab now too:
select rating
Wanna post a correction for this tab? Suggest correction