Oops, an error
Loading. Please wait.

Sick Of Losing Soul Mates tab

version 2
version 2

Whole song

9,019 views 42 this week
2 commentsread comments
1 2 3 4 5
x 18
add to favorites
×
Save as Personal and add changes to this tab that will be seen only by you. Learn more ›
×
You can save this tab as Personal to edit and correct it or add notes. All changes will be seen only by you. Learn more »
launch autoscroll
font size
0
reset
how to read this tab
guitar tuner
edit
Autoscroll
slow
fast
+/-
esc
set tempo
stop
Author
[Intro]

e|---------------------------------------------------------------------------|
B|---------------------------------------------------------------------------|
G|---------------------------------------------------------------------------|
D|--0--0--0--0---0--0--0--0---0--0--0--0--0--0--0--0-------------------------|   
A|---------------------------------------------------------------------------|
E|5--5--5--5-/-7--7--7--7-/-2--2--2--2-/-3--3--3--3--------------------------|

e|---------------------------------------------------------------------------|
B|---------------------------------------------------------------------------|
G|---------------------------------------------------------------------------|
D|--0--0--0--0---0--0--0--0---0--0--0--0---0--0--0--0------------------------|
A|---------------------------------------------------------------------------|
E|5--5--5--5-/-7--7--7--7-/-2--2--2--2-/-3--3--3--3--------------------------|


[Verse]

e|---------------------------------------------------------------------------|
B|---------------------------------------------------------------------------|
G|---------------------------------------------------------------------------|
D|--0--0--0--0---0--0--0--0---0--0--0--0---0--0--0--0------------------------|
A|---------------------------------------------------------------------------|
E|5--5--5--5-/-7--7--7--7-/-2--2--2--2-/-3--3--3--3--------------------------|
   What a strange being you are

e|---------------------------------------------------------------------------|
B|---------------------------------------------------------------------------|
G|---------------------------------------------------------------------------|
D|--0--0--0--0---0--0--0--0---0--0--0--0---0--0--0--0------------------------|
A|---------------------------------------------------------------------------|
E|5--5--5--5-/-7--7--7--7-/-2--2--2--2-/-3--3--3--3--------------------------|
  God knows where I would be if you hadn't found me sitting all alone in the dark

e|---------------------------------------------------------------------------|
B|---------------------------------------------------------------------------|
G|---------------------------------------------------------------------------|
D|--0--0--0--0---0--0--0--0---0--0--0--0---0--0--0--0------------------------|
A|---------------------------------------------------------------------------|
E|5--5--5--5-/-7--7--7--7-/-2--2--2--2-/-3--3--3--3--------------------------|
  A dumb screen shot of youth

e|---------------------------------------------------------------------------|
B|---------------------------------------------------------------------------|
G|---------------------------------------------------------------------------|
D|--0--0--0--0---0--0--0--0---0--0--0--0---0--0--0--0------------------------|
A|---------------------------------------------------------------------------|
E|5--5--5--5-/-7--7--7--7-/-2--2--2--2-/-3--3--3--3--------------------------|
  Watch how a cold broken teen will desperately lean on a super glued human of proof 


[Pre-Chorus]

e|---------------------------------------------------------------------------|
B|---------------------------------------------------------------------------|
G|---------------------------------------------------------------------------|
D|--0--0--0--0---0--0---0--0---0--0--0--0--0--0--0--0------------------------|
A|---------------------------------------------------------------------------|
E|7--7-/-5--5-/-9--9-/-2--2-/-3--3--3--3--3--3--3--3-------------------------|
   what the hell would I be without you

e|---------------------------------------------------------------------------|
B|---------------------------------------------------------------------------|
G|---------------------------------------------------------------------------|
D|--0--0--0--0---0--0---0--0---0--0--0--0--0--0--0--0------------------------|
A|---------------------------------------------------------------------------|
E|7--7-/-5--5-/-9--9-/-2--2-/-3--3--3--3--3--3--3--3-------------------------|
   Brave face talk so lightly hide the truth


[Chorus]

e|---------------------------------------------------------------------------|
B|---------------------------------------------------------------------------|
G|---------------------------------------------------------------------------|
D|--0--0---0--0--0--0--0--0--0--0---0--0---0--0--0--0--0--0--0--0------------|
A|---------------------------------------------------------------------------|
E|2--2-/-3--3--3--3--3--3--3--3-/-5--5-/-7--7--7--7--7--7--7--7--------------|
   Now I'm sick of losing soul mates so where do we begin? 

e|---------------------------------------------------------------------------|
B|---------------------------------------------------------------------------|
G|---------------------------------------------------------------------------|
D|--0--0--0--0---0--0--0--0---0--0--0--0--0--0--0--0-------------------------|
A|---------------------------------------------------------------------------|
E|6--6--6--6-/-1--1--1--1-/-5--5--5--5--5--5--5--5---------------------------|
   I can finally see you're as f****d up as me so how do we win?

e|---------------------------------------------------------------------------|
B|---------------------------------------------------------------------------|
G|---------------------------------------------------------------------------|
D|--0--0---0--0--0--0--0--0--0--0---0--0---0--0--0--0--0--0--0--0------------|
A|---------------------------------------------------------------------------|
E|2--2-/-3--3--3--3--3--3--3--3-/-5--5-/-7--7--7--7--7--7--7--7--------------|
   I'm sick of losing soul mates won't be alone again 

e|---------------------------------------------------------------------------|
B|---------------------------------------------------------------------------|
G|---------------------------------------------------------------------------|
D|--0--0--0--0---0--0--0--0---0--0--0--0--0--0--0--0-------------------------|
A|---------------------------------------------------------------------------|
E|6--6--6--6-/-1--1--1--1-/-5--5--5--5--5--5--5--5---------------------------|
   I can finally see you're as f****d up as me so how do we win?


[Interval/Interlude]

e|---------------------------------------------------------------------------|
B|---------------------------------------------------------------------------|
G|---------------------------------------------------------------------------|
D|--0--0--0--0---0--0--0--0---0--0--0--0--0--0--0--0-------------------------|   
A|---------------------------------------------------------------------------|
E|5--5--5--5-/-7--7--7--7-/-2--2--2--2-/-3--3--3--3--------------------------|

e|---------------------------------------------------------------------------|
B|---------------------------------------------------------------------------|
G|---------------------------------------------------------------------------|
D|--0--0--0--0---0--0--0--0---0--0--0--0---0--0--0--0------------------------|
A|---------------------------------------------------------------------------|
E|5--5--5--5-/-7--7--7--7-/-2--2--2--2-/-3--3--3--3--------------------------|



[Verse]

e|---------------------------------------------------------------------------|
B|---------------------------------------------------------------------------|
G|---------------------------------------------------------------------------|
D|--0--0--0--0---0--0--0--0---0--0--0--0---0--0--0--0------------------------|
A|---------------------------------------------------------------------------|
E|5--5--5--5-/-7--7--7--7-/-2--2--2--2-/-3--3--3--3--------------------------|
   We will grow old as friends

e|---------------------------------------------------------------------------|
B|---------------------------------------------------------------------------|
G|---------------------------------------------------------------------------|
D|--0--0--0--0---0--0--0--0---0--0--0--0---0--0--0--0------------------------|
A|---------------------------------------------------------------------------|
E|5--5--5--5-/-7--7--7--7-/-2--2--2--2-/-3--3--3--3--------------------------|
   I've promised that before so what's one more? In our grey haired circle waiting for the end

e|---------------------------------------------------------------------------|
B|---------------------------------------------------------------------------|
G|---------------------------------------------------------------------------|
D|--0--0--0--0---0--0--0--0---0--0--0--0---0--0--0--0------------------------|
A|---------------------------------------------------------------------------|
E|5--5--5--5-/-7--7--7--7-/-2--2--2--2-/-3--3--3--3--------------------------|
   Time and hearts will wear us thin

e|---------------------------------------------------------------------------|
B|---------------------------------------------------------------------------|
G|---------------------------------------------------------------------------|
D|--0--0--0--0---0--0--0--0---0--0--0--0---0--0--0--0------------------------|
A|---------------------------------------------------------------------------|
E|5--5--5--5-/-7--7--7--7-/-2--2--2--2-/-3--3--3--3--------------------------|
   So which path will you take 'cause we both a know a break does exactly what it says on the tin


[Pre-Chorus}

e|---------------------------------------------------------------------------|
B|---------------------------------------------------------------------------|
G|---------------------------------------------------------------------------|
D|--0--0--0--0---0--0---0--0---0--0--0--0--0--0--0--0------------------------|
A|---------------------------------------------------------------------------|
E|7--7-/-5--5-/-9--9-/-2--2-/-3--3--3--3--3--3--3--3-------------------------|
  what the hell would I be without you

e|---------------------------------------------------------------------------|
B|---------------------------------------------------------------------------|
G|---------------------------------------------------------------------------|
D|--0--0--0--0---0--0---0--0---0--0--0--0--0--0--0--0------------------------|
A|---------------------------------------------------------------------------|
E|7--7-/-5--5-/-9--9-/-2--2-/-3--3--3--3--3--3--3--3-------------------------|
   Brave face talk so lightly hide the truth


[Chorus]

e|---------------------------------------------------------------------------|
B|---------------------------------------------------------------------------|
G|---------------------------------------------------------------------------|
D|--0--0---0--0--0--0--0--0--0--0---0--0---0--0--0--0--0--0--0--0------------|
A|---------------------------------------------------------------------------|
E|2--2-/-3--3--3--3--3--3--3--3-/-5--5-/-7--7--7--7--7--7--7--7--------------|
   Now I'm sick of losing soul mates so where do we begin? 

e|---------------------------------------------------------------------------|
B|---------------------------------------------------------------------------|
G|---------------------------------------------------------------------------|
D|--0--0--0--0---0--0--0--0---0--0--0--0--0--0--0--0-------------------------|
A|---------------------------------------------------------------------------|
E|6--6--6--6-/-1--1--1--1-/-5--5--5--5--5--5--5--5---------------------------|
  I can finally see you're as f****d up as me so how do we win?

e|---------------------------------------------------------------------------|
B|---------------------------------------------------------------------------|
G|---------------------------------------------------------------------------|
D|--0--0---0--0--0--0--0--0--0--0---0--0---0--0--0--0--0--0--0--0------------|
A|---------------------------------------------------------------------------|
E|2--2-/-3--3--3--3--3--3--3--3-/-5--5-/-7--7--7--7--7--7--7--7--------------|
   I'm sick of losing soul mates won't be alone again 

e|---------------------------------------------------------------------------|
B|---------------------------------------------------------------------------|
G|---------------------------------------------------------------------------|
D|--0--0--0--0---0--0--0--0---0--0--0--0--0--0--0--0-------------------------|
A|---------------------------------------------------------------------------|
E|6--6--6--6-/-1--1--1--1-/-5--5--5--5--5--5--5--5---------------------------|
   I can finally see you're as f****d up as me so how do we win?


[Interval/Interlude]

e|---------------------------------------------------------------------------|
B|---------------------------------------------------------------------------|
G|---------------------------------------------------------------------------|
D|--0--0--0--0---0--0--0--0---0--0--0--0--0--0--0--0-------------------------|   
A|---------------------------------------------------------------------------|
E|5--5--5--5-/-7--7--7--7-/-2--2--2--2-/-3--3--3--3--------------------------|


e|---------------------------------------------------------------------------|
B|---------------------------------------------------------------------------|
G|---------------------------------------------------------------------------|
D|--0--0--0--0---0--0--0--0---0--0--0--0---0--0--0--0------------------------|
A|---------------------------------------------------------------------------|
E|5--5--5--5-/-7--7--7--7-/-2--2--2--2-/-3--3--3--3--------------------------|


[Outro}

e|---------------------------------------------------------------------------|
B|---------------------------------------------------------------------------|
G|---------------------------------------------------------------------------|x4  
D|--0--0--0--0---0--0--0--0---0--0--0--0--0--0--0--0-------------------------|  
A|---------------------------------------------------------------------------|
E|5--5--5--5-/-7--7--7--7-/-2--2--2--2-/-3--3--3--3--------------------------|
  I won't take no for an answer


[Outro/Chorus]

e|---------------------------------------------------------------------------|
B|---------------------------------------------------------------------------|
G|---------------------------------------------------------------------------|
D|--0--0---0--0--0--0--0--0--0--0---0--0---0--0--0--0--0--0--0--0------------|
A|---------------------------------------------------------------------------|
E|2--2-/-3--3--3--3--3--3--3--3-/-5--5-/-7--7--7--7--7--7--7--7--------------|
   Now I'm sick of losing soul mates so where do we begin? 

e|---------------------------------------------------------------------------|
B|---------------------------------------------------------------------------|
G|---------------------------------------------------------------------------|
D|--0--0--0--0---0--0--0--0---0--0--0--0--0--0--0--0-------------------------|
A|---------------------------------------------------------------------------|
E|6--6--6--6-/-1--1--1--1-/-5--5--5--5--5--5--5--5---------------------------|
   I can finally see you're as f****d up as me so how do we win?

e|---------------------------------------------------------------------------|
B|---------------------------------------------------------------------------|
G|---------------------------------------------------------------------------|
D|--0--0---0--0--0--0--0--0--0--0---0--0---0--0--0--0--0--0--0--0------------|
A|---------------------------------------------------------------------------|
E|2--2-/-3--3--3--3--3--3--3--3-/-5--5-/-7--7--7--7--7--7--7--7--------------|
   I'm sick of losing soul mates won't be alone again 

e|---------------------------------------------------------------------------|
B|---------------------------------------------------------------------------|
G|---------------------------------------------------------------------------|
D|--0--0--0--0---0--0--0--0---0--0--0--0--0--0--0--0-------------------------|
A|---------------------------------------------------------------------------|
E|6--6--6--6-/-1--1--1--1-/-5--5--5--5--5--5--5--5---------------------------|
   I can finally see you're as f****d up as me so how do we win?
 

************************************
| /   Slide up
| \   Slide down
************************************

            
            
Suggest correction
Creating personal tab
Creating personal tab
You can edit any tab online and save it as your Personal.

You can edit, replace or remove any tab part or add personal notes – all changes will be seen only by you.

Personal tabs can be accessed anytime from any device, even offline.
Learn more »
comments
print report bad tab
2 comments total.
0 reply
aidelkohl 10 Apr 09, 2017 12:24 PM

tip: to play this on uke pluck c and a string and minus one fret from each.

0 reply
Ukulele.love8134 10 May 09, 2017 08:33 PM

Sorry to say this but when you do the plucking pattern it goes duduudu not dudududu

guest
You may want to rate the tab now too:
select rating
Wanna post a correction for this tab? Suggest correction