Oops, an error
Loading. Please wait.

Sick Of Losing Soulmates ukulele

version 5
version 5

Whole song

  • Only Ukulele Tab. Exact chords taken straight from... Show more
  • Tab transcribed from guitar to ukulele.
  • The string order and the octaves are a little bit ... Show more
1,303 views 24 this week
3 commentsread comments
1 2 3 4 5
x 5
add to favorites
×
Save as Personal and add changes to this tab that will be seen only by you. Learn more ›
×
You can save this tab as Personal to edit and correct it or add notes. All changes will be seen only by you. Learn more »
launch autoscroll
font size
0
reset
transpose
0
reset
display chords
guitar tuner
edit
Autoscroll
slow
fast
+/-
esc
set tempo
stop
About this tab version
Tab transcribed from guitar to ukulele. Was this info helpful? Yes No
Strumming
There is no strumming pattern for this song yet. and get +5 IQ
[Intro & Verse]

A|---5---5---5---5---5---5---5---5---5---5---5---5---5---5---5---5-|
E|-5---5---5---5---7---7---7---7---2---2---2---2---3---3---3---3---|
C|-----------------------------------------------------------------|
G|-----------------------------------------------------------------|

What a strange being you are,
God knows where I'd be
If you hadn't found me,
sitting all alone in the dark

A dumb screenshot of youth
Watch how a cold broken teen
Will desperately lean upon a superglued human of proof

[Pre-Chorus]

A|---5---5---5---5---5---5---5---5---5---5---5---5---5---5---5---5-|
E|-7---7---5---5---9---9---2---2---3---3---3---3---3---3---3---3---|
C|-----------------------------------------------------------------|
G|-----------------------------------------------------------------|

What the hell would I be,
without you
Brave face talk so lightly,
hide the truth

[Chorus]
 
A|--5-5-5-5-5-5-5-5-5-5-5-5-5-5-5-5-5-5-5-5-5-5-5-5-5-5-5-5-5-5-5-5-5-5-|
E|-2-2-3-3-3-3-3-3-5-5-7-7-7-7-7-7-7-7-6-6-6-6-1-1-1-1-5-5-5-5-5-5-5-5--|
C|----------------------------------------------------------------------|
G|----------------------------------------------------------------------|

Now I'm sick of losing soulmates,
so where do we begin
I can finally see, you're as fucked up as me
So how do we win?

I'm sick of losing soulmates,
won't be alone again
I can finally see, you're a s fucked up as me
So how do we win?

[Verse 2]

A|---5---5---5---5---5---5---5---5---5---5---5---5---5---5---5---5-|
E|-5---5---5---5---7---7---7---7---2---2---2---2---3---3---3---3---|
C|-----------------------------------------------------------------|
G|-----------------------------------------------------------------|

We will grow old as friends,
I've promised that before
So what's one more?
In our grey-haired circle, waiting for the end

Time and hearts wear us thin
So which path will you take,
cause we both know a break
Does exactly what it says on the tin

[Pre-Chorus]

A|---5---5---5---5---5---5---5---5---5---5---5---5---5---5---5---5-|
E|-7---7---5---5---9---9---2---2---3---3---3---3---3---3---3---3---|
C|-----------------------------------------------------------------|
G|-----------------------------------------------------------------|

What the hell would I be,
without you
Brave face talk so lightly,
hide the truth

[Chorus]

A|--5-5-5-5-5-5-5-5-5-5-5-5-5-5-5-5-5-5-5-5-5-5-5-5-5-5-5-5-5-5-5-5-5-5-|
E|-2-2-3-3-3-3-3-3-5-5-7-7-7-7-7-7-7-7-6-6-6-6-1-1-1-1-5-5-5-5-5-5-5-5--|
C|----------------------------------------------------------------------|
G|----------------------------------------------------------------------|

Now I'm sick of losing soulmates,
so where do we begin
I can finally see, you're as fucked up as me
So how do we win?

I'm sick of losing soulmates,
won't be alone again
I can finally see, you're a s fucked up as me
So how do we win?

[Bridge]

A|---5---5---5---5---5---5---5---5---5---5---5---5---5---5---5---5-|
E|-5---5---5---5---7---7---7---7---2---2---2---2---3---3---3---3---|
C|-----------------------------------------------------------------|
G|-----------------------------------------------------------------|

I won't take no for an answer (I won't take no for an answer)
I won't take no for an answer (I won't take no for an answer)
I won't take no (I won't take no)
I won't take no (I won't take no)

[Pre-Chorus]

A|---5---5---5---5---5---5---5---5---5---5---5---5---5---5---5---5-|
E|-7---7---5---5---9---9---2---2---3---3---3---3---3---3---3---3---|
C|-----------------------------------------------------------------|
G|-----------------------------------------------------------------|

What the hell would I be,
without you
Brave face talk so lightly,
hide the truth

[Chorus]

A|--5-5-5-5-5-5-5-5-5-5-5-5-5-5-5-5-5-5-5-5-5-5-5-5-5-5-5-5-5-5-5-5-5-5-|
E|-2-2-3-3-3-3-3-3-5-5-7-7-7-7-7-7-7-7-6-6-6-6-1-1-1-1-5-5-5-5-5-5-5-5--|
C|----------------------------------------------------------------------|
G|----------------------------------------------------------------------|

Now I'm sick of losing soulmates,
so where do we begin
I can finally see, you're as fucked up as me
So how do we win?

I'm sick of losing soulmates,
won't be alone again
I can finally see, you're a s fucked up as me
So how do we win?

            
            
Suggest correction
Creating personal tab
Creating personal tab
You can edit any tab online and save it as your Personal.

You can edit, replace or remove any tab part or add personal notes – all changes will be seen only by you.

Personal tabs can be accessed anytime from any device, even offline.
Learn more »
comments
print report bad tab
3 comments total.
0 reply
dottietheyoutubefantic 10 Sep 01, 2017 08:18 AM

This is by far the best uke tab I have found for sick of loosing soulmates!!!!! Well done it's awesome!

0 reply
holdupforwhat 2,368 Sep 01, 2017 07:07 PM

Thank you so much!!!!

0 reply
fizzyzebra303 10 Dec 02, 2017 01:55 AM

EASIER TAB THOUGH NOT RIGHT KEY:

intro/verse:
A--0-0-0-0-0-0-0-0-0-0-0-0-0-0-0-0
E-0-0-0-0-2-2-2-2-----------------
C-----------------1-1-1-1-2-2-2-2-
G---------------------------------

pre-chorus:
A--0-0-0-0-0-0-0-0-0-0-0-0-0-0-0-0
E-2-2-0-0-------------------------
C---------1-1-2-2-2-2-2-2-2-2-2-2-
G---------------------------------

chorus:
A--0-0-0-0-0-0-0-0-0-0-0-0-0-0-0-0-0-0-0-0-0-0-0-0-0-0-0-0-0-0-0-0-
E-----------------0-0-2-2-2-2-2-2-2-2-1-1-1-1---------0-0-0-0-0-0--
C-1-1-2-2-2-2-2-2-----------------------------0-0-0-0--------------
G------------------------------------------------------------------

bridge:
A--0-0-0-0-0-0-0-0-0-0-0-0-0-0-0-0
E-0-0-0-0-2-2-2-2-----------------
C-----------------1-1-1-1-2-2-2-2-
G---------------------------------

guest
You may want to rate the tab now too:
select rating
Wanna post a correction for this tab? Suggest correction