Oops, an error
Loading. Please wait.

Sick Of Losing Soulmates ukulele

version 7
version 7

Whole song

  • Only Ukulele Tab. Exact chords taken straight from... Show more
  • Tab transcribed from guitar to ukulele.
  • The string order and the octaves are a little bit ... Show more
1,306 views 66 this week
1 commentread comment
1 2 3 4 5
x 19
add to favorites
×
Save as Personal and add changes to this tab that will be seen only by you. Learn more ›
×
You can save this tab as Personal to edit and correct it or add notes. All changes will be seen only by you. Learn more »
launch autoscroll
font size
0
reset
transpose
0
reset
display chords
guitar tuner
edit
Autoscroll
slow
fast
+/-
esc
set tempo
stop
Difficulty
intermediate
Strumming
There is no strumming pattern for this song yet. and get +5 IQ
[Intro & Verse]
A|--0-0-0-0-0-0-0-0-0-0-0-0-0-0-0-0-0-|
E|------------------------------------|
C|-4-4-4-4-6-6-6-6-1-1-1-1-2-2-2-2-2--|
G|------------------------------------|

What a strange being you are,
God knows where I'd be
If you hadn't found me,
sitting all alone in the dark

A dumb screenshot of youth
Watch how a cold broken teen
Will desperately lean upon a superglued human of proof

[Pre-Chorus]
A|--0-0-0-0-0-0-0-0-0-0-0-0-0-0-0-0---|
E|------------------------------------|
C|-6-6-4-4-8-8-1-1-2-2-2-2-2-2-2-2----|
G|------------------------------------|

What the hell would I be,
without you
Brave face talk so lightly,
hide the truth

[Chorus]
A|--0-0-0-0-0-0-0-0-0-0-0-0-0-0-0-0--0-0-0-0-0-0-0-0-0-0-0-0-0-0-0-0-0-0--|
E|------------------------------------------------------------------------|
C|-1-1-2-2-2-2-2-2-4-4-6-6-6-6-6-6-6-5-5-5-5-5-0-0-0-0-4-4-4-4-4-4-4-4----|
G|------------------------------------------------------------------------|

Now I'm sick of losing soulmates,
so where do we begin
I can finally see, you're as fucked up as me
So how do we win?

I'm sick of losing soulmates,
won't be alone again
I can finally see, you're a s fucked up as me
So how do we win?

[Verse 2]
A|--0-0-0-0-0-0-0-0-0-0-0-0-0-0-0-0-0-|
E|------------------------------------|
C|-4-4-4-4-6-6-6-6-1-1-1-1-2-2-2-2-2--|
G|------------------------------------|

We will grow old as friends,
I've promised that before
So what's one more?
In our grey-haired circle, waiting for the end

Time and hearts wear us thin
So which path will you take,
cause we both know a break
Does exactly what it says on the tin

[Pre-Chorus]
A|--0-0-0-0-0-0-0-0-0-0-0-0-0-0-0-0---|
E|------------------------------------|
C|-6-6-4-4-8-8-1-1-2-2-2-2-2-2-2-2----|
G|------------------------------------|

What the hell would I be,
without you
Brave face talk so lightly,
hide the truth

[Chorus]
A|--0-0-0-0-0-0-0-0-0-0-0-0-0-0-0-0--0-0-0-0-0-0-0-0-0-0-0-0-0-0-0-0-0-0--|
E|------------------------------------------------------------------------|
C|-1-1-2-2-2-2-2-2-4-4-6-6-6-6-6-6-6-5-5-5-5-5-0-0-0-0-4-4-4-4-4-4-4-4----|
G|------------------------------------------------------------------------|

Now I'm sick of losing soulmates,
so where do we begin
I can finally see, you're as fucked up as me
So how do we win?

I'm sick of losing soulmates,
won't be alone again
I can finally see, you're a s fucked up as me
So how do we win?

[Bridge]
A|--0-0-0-0-0-0-0-0-0-0-0-0-0-0-0-0-0-|
E|------------------------------------|
C|-4-4-4-4-6-6-6-6-1-1-1-1-2-2-2-2-2--|
G|------------------------------------|

I won't take no for an answer (I won't take no for an answer)
I won't take no for an answer (I won't take no for an answer)
I won't take no (I won't take no)
I won't take no (I won't take no)

[Chorus]
A|--0-0-0-0-0-0-0-0-0-0-0-0-0-0-0-0--0-0-0-0-0-0-0-0-0-0-0-0-0-0-0-0-0-0--|
E|------------------------------------------------------------------------|
C|-1-1-2-2-2-2-2-2-4-4-6-6-6-6-6-6-6-5-5-5-5-5-0-0-0-0-4-4-4-4-4-4-4-4----|
G|------------------------------------------------------------------------|

Now I'm sick of losing soulmates,
so where do we begin
I can finally see, you're as fucked up as me
So how do we win?

I'm sick of losing soulmates,
won't be alone again
I can finally see, you're a s fucked up as me
So how do we win?

            
            
Suggest correction
Creating personal tab
Creating personal tab
You can edit any tab online and save it as your Personal.

You can edit, replace or remove any tab part or add personal notes – all changes will be seen only by you.

Personal tabs can be accessed anytime from any device, even offline.
Learn more »
comments
print report bad tab
1 comment total.
+1 reply
jeanne_dasmine 137 Jul 08, 2017 06:24 AM

REALLY GOOD!

guest
Wanna post a correction for this tab? Suggest correction