Oops, an error
Loading. Please wait.

Doris Day bass

572 views 1 this week
1 commentread comment
1 2 3 4 5
1 last vote to show rating
add to favorites
×
Save as Personal and add changes to this tab that will be seen only by you. Learn more ›
×
You can save this tab as Personal to edit and correct it or add notes. All changes will be seen only by you. Learn more »
launch autoscroll
font size
0
reset
guitar tuner
edit
Autoscroll
slow
fast
+/-
esc
set tempo
stop
Author
Difficulty
---  Doris Day by Doe Maar  ---
---   Tabbed by niels241    ---


Verse:

G|-------0-4-3--3--3--4-|-6-----9--------------|
D|---2-4----------------|---7-----9--9---------|
A|-2--------------------|-----7---------9--9---|
E|----------------------|----------------------|
3x first, then 2x second. Repeat 2x.


Chorus:

G|---444-444-4---------------------------------|
D|-2-----------2----7777777-7------------------|
A|----------------5-----------5----------------|
E|---------------------------------------------|

G|---444-444-4---------------------------------|
D|-2-----------2----777-777-7------6666666-6---|
A|----------------5-----------5--4-----------4-|
E|---------------------------------------------|

G|---------------------------------------------|
D|-----------------666-666-6-------------------|
A|---------4--4--4-----------4--5-5-5-5-6--6---|
E|-2-2-2-2-------------------------------------|

Repeat 2x. You can vary with the fast notes, as I did at the end of the first and second parts.


1x Verse

1x Chorus


Bridge:

G|---------------------------------------------|
D|-2--------4--------2-----------2--2----------|
A|----2--2-----4--4-----0--0--2----------------|
E|---------------------------------------------|

G|---------------------------------------------|
D|-2---------4---------2-----------2--2--------|
A|----2--2--2---4--4--4---0--0--2--------------|
E|---------------------------------------------|

G|---------------------------------------------|
D|-2--------4--------2------------2--2---------|
A|----2--2-----4--4-----0--0--02---------------|
E|---------------------------------------------|

G|---------------------------------------------|
D|-2---------4--------2-----------2--2---------|
A|----2--2--2---4--4-----0--0--2---------------|
E|---------------------------------------------|


1x Chorus

9x Verse first part (fade-out)

            
            
Suggest correction
Creating personal tab
Creating personal tab
You can edit any tab online and save it as your Personal.

You can edit, replace or remove any tab part or add personal notes – all changes will be seen only by you.

Personal tabs can be accessed anytime from any device, even offline.
Learn more »
Give kudos to tab author, rate the tab!
1 2 3 4 5
comments
print report bad tab
1 comment total.
0 reply
RonnieDeRakker 99 Dec 08, 2015 09:21 PM

Doesn't:
G|---------------------------------------------|
D|---999-999-9------7777777-7------------------|
A|-7-----------7--5-----------5----------------|
E|---------------------------------------------|

'flow' better than:
G|---444-444-4---------------------------------|
D|-2-----------2----7777777-7------------------|
A|----------------5-----------5----------------|
E|---------------------------------------------|

Just my 2 cents. :-) Everything else is great!

guest
You may want to rate the tab now too:
select rating
Wanna post a correction for this tab? Suggest correction