Oops, an error
Loading. Please wait.

Sinds 1 Dag Of 2 32 Jaar bass

version 1
version 1

Whole song

6,186 views 15 this week
no commentswrite comment
1 2 3 4 5
x 5
add to favorites
×
Save as Personal and add changes to this tab that will be seen only by you. Learn more ›
×
You can save this tab as Personal to edit and correct it or add notes. All changes will be seen only by you. Learn more »
launch autoscroll
font size
0
reset
guitar tuner
edit
Autoscroll
slow
fast
+/-
esc
set tempo
stop
Difficulty
Doe maar - 32 jaar (sinds 1 dag of 2) Bass guitar Tab 

Little improvement in my opinion to existing tabs 

4-4
INTRO
G|--------|--------|--------|--------|
D|--------|--------|--------|--------|
A|--------|--------|--------|--------|
E|--------|--------|--------|--------|
  1 2 3 4 |1 2 3 4 |1 2 3 4 |1 2 3 4 |

   Sinds een dag of 2...
G|--------|--------|--------|--------|--------|--------|--------|--------|
D|--------|--------|--------|--------|--------|--------|--------|--------|
A|--------|--------|--------|--------|----44--|55--77--|--------|--------|
E|55------|--------|55------|----554-|22------|------0-|55------|--------|
  1 2 3 4 |1 2 3 4 |1 2 3 4 |1 2 3 4 |1 2 3 4 |1 2 3 4 |1 2 3 4 |1 2 3 4 |

   Ik kijk om me heen...
G|--------|--------|--------|--------|--------|--------|--------|--------|
D|--------|--------|--------|--------|--------|--------|--------|--------|
A|--------|--------|--------|--------|----44--|55--77--|--------|--------|
E|55--55--|55--55--|55--55--|55--554-|22------|------0-|55------|55------|
  1 2 3 4 |1 2 3 4 |1 2 3 4 |1 2 3 4 |1 2 3 4 |1 2 3 4 |1 2 3 4 |1 2 3 4 |

   't is wel een beetje raar,...
G|--------|--------|--------|--------|--------|--------|
D|--------|--------|--------|--------|--------|--------|
A|--------|--------|--------|--------|--------|--------|
E|55554444|33332222|11111111|11111111|33333333|33333333|
  1 2 3 4 |1 2 3 4 |1 2 3 4 |1 2 3 4 |1 2 3 4 |1 2 3 4 |

   Oeh la la, la, la, la,...
G|--------|--------|--------|--------|--------|--------|--------|--------|
D|--------|--------|--------|--------|--------|--------|--------|--------|
A|--------|55------|--------|55------|--------|55------|--------|55------|
E|--020520|--------|--020520|--------|--020520|--------|--020520|----3344|
  1 2 3 4 |1 2 3 4 |1 2 3 4 |1 2 3 4 |1 2 3 4 |1 2 3 4 |1 2 3 4 |1 2 3 4 |

   Mannen bij de vleet...
G|--------|--------|--------|--------|--------|--------|--------|--------|
D|--------|--------|--------|--------|--------|--------|--------|--------|
A|--------|--------|--------|--------|----44--|55--77--|--------|--------|
E|55--55--|55--55--|55--55--|55--554-|22------|------0-|55------|55------|
  1 2 3 4 |1 2 3 4 |1 2 3 4 |1 2 3 4 |1 2 3 4 |1 2 3 4 |1 2 3 4 |1 2 3 4 |

   Alles wat ze zegt...
G|--------|--------|--------|--------|--------|--------|--------|--------|
D|--------|--------|--------|--------|--------|--------|--------|--------|
A|--------|--------|--------|--------|----44--|55--77--|--------|--------|
E|55--55--|55--55--|55--55--|55--554-|22------|------0-|55------|55------|
  1 2 3 4 |1 2 3 4 |1 2 3 4 |1 2 3 4 |1 2 3 4 |1 2 3 4 |1 2 3 4 |1 2 3 4 |

   Wel een beetje raar,...
G|--------|--------|--------|--------|--------|--------|
D|--------|--------|--------|--------|--------|--------|
A|--------|--------|--------|--------|--------|--------|
E|55554444|33332222|11111111|11111111|33333333|33333333/slide up then down end at 0|
  1 2 3 4 |1 2 3 4 |1 2 3 4 |1 2 3 4 |1 2 3 4 |1 2 3 4 |

   Oeh la la, la, la, la,...
G|--------|--------|--------|--------|--------|--------|--------|--------|
D|--------|--------|--------|--------|--------|--------|--------|--------|
A|--------|55------|--------|55------|--------|55------|--------|55------|
E|--020520|--------|--020520|--------|--020520|--------|--020520|----3344|
  1 2 3 4 |1 2 3 4 |1 2 3 4 |1 2 3 4 |1 2 3 4 |1 2 3 4 |1 2 3 4 |1 2 3 4 |

GUITAR SOLO 10 chords

G|----|----|----|----|----|----|----|----|----|----|
D|----|----|----|----|----|----|----|----|----|----|
A|----|----|----|----|----|----|----|----|----|----|
E|5555|5555|5555|5533|2222|2222|2222|2233|----|----|
  1234|1234|1234|1234|1234|1234|1234|1234|1234|1234|

G|----|----|----|----|----|----|----|----|----|----|
D|----|----|----|----|----|----|----|----|----|----|
A|----|----|----|----|----|----|----|----|----|--5~|
E|5555|5555|5555|5533|2222|2222|2222|2233|5305|30--|
  1234|1234|1234|1234|1234|1234|1234|1234|1234|1234|

   Oeh la la, la, la, la,...
G|--------|--------|--------|--------|--------|--------|--------|--------|
D|--------|--------|--------|--------|--------|--------|--------|--------|
A|--------|55------|--------|55------|--------|55------|--------|55------|
E|--020520|--------|--020520|--------|--020520|--------|--020520|--------|
  1 2 3 4 |1 2 3 4 |1 2 3 4 |1 2 3 4 |1 2 3 4 |1 2 3 4 |1 2 3 4 |1 2 3 4 |

   Oeh la la, la, la, la,...
G|--------|--------|--------|--------|--------|-------------------|
D|--------|--------|--------|--------|--------|-------------------|
A|--------|55------|--------|55------|--------|-------------------|
E|--020520|--------|--020520|--------|---02022|3let it ring ------|
  1 2 3 4 |1 2 3 4 |1 2 3 4 |1 2 3 4 |1 2 3 4 |1 2 3 4 |

            
            
Suggest correction
Creating personal tab
Creating personal tab
You can edit any tab online and save it as your Personal.

You can edit, replace or remove any tab part or add personal notes – all changes will be seen only by you.

Personal tabs can be accessed anytime from any device, even offline.
Learn more »
comments
print report bad tab
guest
Wanna post a correction for this tab? Suggest correction