Oops, an error
Loading. Please wait.

Donten tab

version 2
version 2

Whole song

Interactive

by DOES
460 views 3 this week
no commentswrite comment
1 2 3 4 5
2 more votes to show rating
add to favorites
×
Save as Personal and add changes to this tab that will be seen only by you. Learn more ›
×
You can save this tab as Personal to edit and correct it or add notes. All changes will be seen only by you. Learn more »
launch autoscroll
font size
0
reset
how to read this tab
guitar tuner
edit
Autoscroll
slow
fast
+/-
esc
set tempo
stop
Author
Difficulty
-------------------------------------------------------------------------------
                             DONTEN - DOES
-------------------------------------------------------------------------------

Tabbed by: NorthernLord
E-mail: guardianofvictory@gmail.com

Tuning: Standard (EADGBe)

Additinal information:

Key: D minor
Tempo: ~190bpm
Lyrcs: included

Song structure:

-Intro (STARTS AT 00:00)
-Verse 1 (STARTS AT 00:22)
-Verse 2 (STARTS AT 00:42)
-Chorus (STARTS AT 01:03)
-Verse 3 (STARTS AT 01:27)
-Chorus (STARTS AT 01.47)
-Bridge/"Solo" (STARTS AT 02:07)
-Chorus (STARTS AT 02:27)
-Outro (STARTS AT 02:51)

----------------------------------------------------------------------------------------------------------





                   Okay, here we go. Enjoy:



Intro:

STARTS AT 00:00


e||--------------------------|--------------------------|--------------------------|--------------------------|
B||--------------------------|--------------------------|--------------------------|--------------------------|
G||--------------------------|--------------------------|--------------------------|--------------------------|
D||--7--7--X--7--7--7--X--7--|--7--7--X--7--7--7--X--7--|--7--7--X--7--7--7--X--7--|--7--7--X--7--7--7--X--7--|
A||--5--5--X--5--5--5--X--5--|--5--5--X--5--5--5--X--5--|--5--5--X--5--5--5--X--5--|--5--5--X--5--5--5--X--5--|
E||--5--5--X--5--5--5--X--5--|--5--5--X--5--5--5--X--5--|--5--5--X--5--5--5--X--5--|--5--5--X--5--5--5--X--5--|


e||--------------------------|--------------------------|--------------------------|--------------------------|
B||--------------------------|--------------------------|--------------------------|--------------------------|
G||--------------------------|--------------------------|--------------------------|--------------------------|
D||--7--7--X--7--7--7--X--7--|--7--7--X--7--7--7--X--7--|--7--7--X--7--7--7--X--7--|--7--7--X--7--7--7--X--7--|
A||--5--5--X--5--5--5--X--5--|--5--5--X--5--5--5--X--5--|--5--5--X--5--5--5--X--5--|--5--5--X--5--5--5--X--5--|
E||--5--5--X--5--5--5--X--5--|--5--5--X--5--5--5--X--5--|--5--5--X--5--5--5--X--5--|--5--5--X--5--5--5--X--5--|


e||--------------------------|--------------------------|--------------------------|--------------------------|
B||--6--6--6--6--6--6--6--6--|--------------------------|--10-10-10-10-10-10-10-10-|--------------------------|
G||--7--7--7--7--7--7--7--7--|--7--7--7--7--7--7--7--7--|--10-10-10-10-10-10-10-10-|--9--9--9--9--9--9--9--9--|
D||--7--7--7--7--7--7--7--7--|--8--8--8--8--8--8--8--8--|--10-10-10-10-10-10-10-10-|--10-10-10-10-10-10-10-10-|
A||--5--5--5--5--5--5--5--5--|--8--8--8--8--8--8--8--8--|--8--8--8--8--8--8--8--8--|--10-10-10-10-10-10-10-10-|
E||--------------------------|--6--6--6--6--6--6--6--6--|--------------------------|--8--8--8--8--8--8--8--8--|


e||--------------------------|--------------------------|--------------------------|--------------------------|
B||--6--6--6--6--6--6--6--6--|--------------------------|--10-10-10-10-10-10-10-10-|--------------------------|
G||--7--7--7--7--7--7--7--7--|--7--7--7--7--7--7--7--7--|--10-10-10-10-10-10-10-10-|--9--9--9--9--9--9--9--9--|
D||--7--7--7--7--7--7--7--7--|--8--8--8--8--8--8--8--8--|--10-10-10-10-10-10-10-10-|--10-10-10-10-10-10-10-10-|
A||--5--5--5--5--5--5--5--5--|--8--8--8--8--8--8--8--8--|--8--8--8--8--8--8--8--8--|--10-10-10-10-10-10-10-10-|
E||--------------------------|--6--6--6--6--6--6--6--6--|--------------------------|--8--8--8--8--8--8--8--8--|


e||--------------------------|
B||--------------------------|
G||--------------------------|
D||--7--7--X--7--7--7--X--7--|
A||--5--5--X--5--5--5--X--5--|
E||--5--5--X--5--5--5--X--5--|


Verse:



STARTS AT 00:22


e||--------------------------|
B||--------------------------|
G||--------------------------|
D||--7--7--X--7--7--7--X--7--|
A||--5--5--X--5--5--5--X--5--|
E||--5--5--X--5--5--5--X--5--|
                 Na   ma

e||--------------------------|--------------------------|--------------------------|--------------------------|
B||--6--6--6--6--6--6--6--6--|--6--6--6--6--6--6--6--6--|--6--6--6--6--6--6--6--6--|--6--6--6--6--6--6--6--6--|
G||--7--7--7--7--7--7--7--7--|--7--7--7--7--7--7--7--7--|--7--7--7--7--7--7--7--7--|--7--7--7--7--7--7--7--7--|
D||--7--7--7--7--7--7--7--7--|--7--7--7--7--7--7--7--7--|--7--7--7--7--7--7--7--7--|--7--7--7--7--7--7--7--7--|
A||--5--5--5--5--5--5--5--5--|--5--5--5--5--5--5--5--5--|--5--5--5--5--5--5--5--5--|--5--5--5--5--5--5--5--5--|
E||--------------------------|--------------------------|--------------------------|--------------------------|
     ri          no    so       ra          o     mo       ku    ta    re    ko       mi          ma    sshi

e||--------------------------|--------------------------|--------------------------|--------------------------|
B||--6--6--6--6--6--6--6--6--|--6--6--6--6--6--6--6--6--|--6--6--6--6--6--6--6--6--|--6--6--6--6--6--6--6--6--|
G||--7--7--7--7--7--7--7--7--|--7--7--7--7--7--7--7--7--|--7--7--7--7--7--7--7--7--|--7--7--7--7--7--7--7--7--|
D||--7--7--7--7--7--7--7--7--|--7--7--7--7--7--7--7--7--|--7--7--7--7--7--7--7--7--|--7--7--7--7--7--7--7--7--|
A||--5--5--5--5--5--5--5--5--|--5--5--5--5--5--5--5--5--|--5--5--5--5--5--5--5--5--|--5--5--5--5--5--5--5--5--|
E||--------------------------|--------------------------|--------------------------|--------------------------|
     ro          ni    yo       don         da             ta    i     yo    u         ga   ku     da   ke    

e||--------------------------|--------------------------|--------------------------|--------------------------|
B||--------------------------|--------------------------|--------------------------|--------------------------|
G||--7--7--7--7--7--7--7--7--|--7--7--7--7--7--7--7--7--|--9--9--9--9--9--9--9--9--|--9--9--9--9--9--9--9--9--|
D||--8--8--8--8--8--8--8--8--|--8--8--8--8--8--8--8--8--|--10-10-10-10-10-10-10-10-|--10-10-10-10-10-10-10-10-|
A||--8--8--8--8--8--8--8--8--|--8--8--8--8--8--8--8--8--|--10-10-10-10-10-10-10-10-|--10-10-10-10-10-10-10-10-|
E||--6--6--6--6--6--6--6--6--|--6--6--6--6--6--6--6--6--|--8--8--8--8--8--8--8--8--|--8--8--8--8--8--8--8--8--|
     te                         mi    mi    na    ri       wo                         to    ga    ra    se

e||--------------------------|--------------------------|--------------------------|
B||--------------------------|--------------------------|--------------------------|
G||--------------------------|--------------------------|--------------------------|
D||--7--7--X--7--7--7--X--7--|--7--7--X--7--7--7--X--7--|--7--7--X--7--7--7--X--7--|
A||--5--5--X--5--5--5--X--5--|--5--5--X--5--5--5--X--5--|--5--5--X--5--5--5--X--5--|
E||--5--5--X--5--5--5--X--5--|--5--5--X--5--5--5--X--5--|--5--5--X--5--5--5--X--5--|
     ru



Verse 



STARTS AT 00:42


e||--------------------------|
B||--------------------------|
G||--------------------------|
D||--7--7--X--7--7--7--X--7--|
A||--5--5--X--5--5--5--X--5--|
E||--5--5--X--5--5--5--X--5--|
                 hyu   ru

e||--------------------------|--------------------------|--------------------------|--------------------------|
B||--6--6--6--6--6--6--6--6--|--6--6--6--6--6--6--6--6--|--6--6--6--6--6--6--6--6--|--6--6--6--6--6--6--6--6--|
G||--7--7--7--7--7--7--7--7--|--7--7--7--7--7--7--7--7--|--7--7--7--7--7--7--7--7--|--7--7--7--7--7--7--7--7--|
D||--7--7--7--7--7--7--7--7--|--7--7--7--7--7--7--7--7--|--7--7--7--7--7--7--7--7--|--7--7--7--7--7--7--7--7--|
A||--5--5--5--5--5--5--5--5--|--5--5--5--5--5--5--5--5--|--5--5--5--5--5--5--5--5--|--5--5--5--5--5--5--5--5--|
E||--------------------------|--------------------------|--------------------------|--------------------------|
     ri          hyu   ru       ri          hi    ku       i     tsu   ba    me       ga          ha    chi

e||--------------------------|--------------------------|--------------------------|--------------------------|
B||--6--6--6--6--6--6--6--6--|--6--6--6--6--6--6--6--6--|--6--6--6--6--6--6--6--6--|--6--6--6--6--6--6--6--6--|
G||--7--7--7--7--7--7--7--7--|--7--7--7--7--7--7--7--7--|--7--7--7--7--7--7--7--7--|--7--7--7--7--7--7--7--7--|
D||--7--7--7--7--7--7--7--7--|--7--7--7--7--7--7--7--7--|--7--7--7--7--7--7--7--7--|--7--7--7--7--7--7--7--7--|
A||--5--5--5--5--5--5--5--5--|--5--5--5--5--5--5--5--5--|--5--5--5--5--5--5--5--5--|--5--5--5--5--5--5--5--5--|
E||--------------------------|--------------------------|--------------------------|--------------------------|
     no          ji    na       zo          tte            bi    ru    no    ta       ni    wo    ka    ke

e||--------------------------|--------------------------|--------------------------|--------------------------|
B||--------------------------|--------------------------|--------------------------|--------------------------|
G||--7--7--7--7--7--7--7--7--|--7--7--7--7--7--7--7--7--|--9--9--9--9--9--9--9--9--|--9--9--9--9--9--9--9--9--|
D||--8--8--8--8--8--8--8--8--|--8--8--8--8--8--8--8--8--|--10-10-10-10-10-10-10-10-|--10-10-10-10-10-10-10-10-|
A||--8--8--8--8--8--8--8--8--|--8--8--8--8--8--8--8--8--|--10-10-10-10-10-10-10-10-|--10-10-10-10-10-10-10-10-|
E||--6--6--6--6--6--6--6--6--|--6--6--6--6--6--6--6--6--|--8--8--8--8--8--8--8--8--|--8--8--8--8--8--8--8--8--|
     ru                         Mo    u     ji    ki       ni                         yu    u     da    chi

e||--------------------------|--------------------------|--------------------------|
B||--6--6--6--6--6--6--6--6--|--6--6--6--6--6--6--6--6--|--6--6--6--6--6--6--6--6--|
G||--7--7--7--7--7--7--7--7--|--7--7--7--7--7--7--7--7--|--7--7--7--7--7--7--7--7--|
D||--7--7--7--7--7--7--7--7--|--7--7--7--7--7--7--7--7--|--7--7--7--7--7--7--7--7--|
A||--5--5--5--5--5--5--5--5--|--5--5--5--5--5--5--5--5--|--5--5--5--5--5--5--5--5--|
E||--------------------------|--------------------------|--------------------------|
     ga                         ku                         ru



Chorus:


STARTS AT 01:03

e||--------------------------|
B||--10----------------------|
G||--10----------------------|
D||--10----------------------|
A||--8-----------------------|
E||--------------------------|
                   Don
e||--------------------------|--------------------------|--------------------------|--------------------------|
B||--6--6--6--6--6--6--6--6--|--------------------------|--10-10-10-10-10-10-10-10-|--------------------------|
G||--7--7--7--7--7--7--7--7--|--7--7--7--7--7--7--7--7--|--10-10-10-10-10-10-10-10-|--9--9--9--9--9--9--9--9--|
D||--7--7--7--7--7--7--7--7--|--8--8--8--8--8--8--8--8--|--10-10-10-10-10-10-10-10-|--10-10-10-10-10-10-10-10-|
A||--5--5--5--5--5--5--5--5--|--8--8--8--8--8--8--8--8--|--8--8--8--8--8--8--8--8--|--10-10-10-10-10-10-10-10-|
E||--------------------------|--6--6--6--6--6--6--6--6--|--------------------------|--8--8--8--8--8--8--8--8--|
     ten         no             mi    chi   wo             ka    sa    wo    wa       su    re    te
e||--------------------------|--------------------------|--------------------------|--------------------------|
B||--6--6--6--6--6--6--6--6--|--------------------------|--10-10-10-10-10-10-10-10-|--------------------------|
G||--7--7--7--7--7--7--7--7--|--7--7--7--7--7--7--7--7--|--10-10-10-10-10-10-10-10-|--9--9--9--9--9--9--9--9--|
D||--7--7--7--7--7--7--7--7--|--8--8--8--8--8--8--8--8--|--10-10-10-10-10-10-10-10-|--10-10-10-10-10-10-10-10-|
A||--5--5--5--5--5--5--5--5--|--8--8--8--8--8--8--8--8--|--8--8--8--8--8--8--8--8--|--10-10-10-10-10-10-10-10-|
E||--------------------------|--6--6--6--6--6--6--6--6--|--------------------------|--8--8--8--8--8--8--8--8--|
     a     ru    ku    ka       no    jo    wa             a     me    ni    o        bi    e     te    ru
e||--------------------------|--------------------------|--------------------------|--------------------------|
B||--6--6--6--6--6--6--6--6--|--------------------------|--10-10-10-10-10-10-10-10-|--------------------------|
G||--7--7--7--7--7--7--7--7--|--7--7--7--7--7--7--7--7--|--10-10-10-10-10-10-10-10-|--9--9--9--9--9--9--9--9--|
D||--7--7--7--7--7--7--7--7--|--8--8--8--8--8--8--8--8--|--10-10-10-10-10-10-10-10-|--10-10-10-10-10-10-10-10-|
A||--5--5--5--5--5--5--5--5--|--8--8--8--8--8--8--8--8--|--8--8--8--8--8--8--8--8--|--10-10-10-10-10-10-10-10-|
E||--------------------------|--6--6--6--6--6--6--6--6--|--------------------------|--8--8--8--8--8--8--8--8--|
     no          de             bo    ku    mo             yo    wa    mu    shi      bu    ra    sa    ge
e||--------------------------|--------------------------|--------------------------|
B||--6--6--6--6--6--6--6--6--|--------------------------|--------------------------|
G||--7--7--7--7--7--7--7--7--|--7--7--7--7--7--7--7--7--|--9--9--9--9--9--9--9--9--|
D||--7--7--7--7--7--7--7--7--|--8--8--8--8--8--8--8--8--|--10-10-10-10-10-10-10-10-|
A||--5--5--5--5--5--5--5--5--|--8--8--8--8--8--8--8--8--|--10-10-10-10-10-10-10-10-|
E||--------------------------|--6--6--6--6--6--6--6--6--|--8--8--8--8--8--8--8--8--|
     te                         so          ra             wo       a        o

e||--------------------------|--------------------------|--------------------------|
B||--6--6--6--6--6--6--6--6--|--6--6--6--6--6--6--6--6--|--------------------------|
G||--7--7--7--7--7--7--7--7--|--7--7--7--7--7--7--7--7--|--7--7--7--7--7--7--7--7--|
D||--7--7--7--7--7--7--7--7--|--7--7--7--7--7--7--7--7--|--8--8--8--8--8--8--8--8--|
A||--5--5--5--5--5--5--5--5--|--5--5--5--5--5--5--5--5--|--8--8--8--8--8--8--8--8--|
E||--------------------------|--------------------------|--6--6--6--6--6--6--6--6--|
     gu




Verse:


STARTS AT 01:27


e||--------------------------|
B||--------------------------|
G||--9--9--9--9--9--9--9--9--|
D||--10-10-10-10-10-10-10-10-|
A||--10-10-10-10-10-10-10-10-|
E||--8--8--8--8--8--8--8--8--|
                 A     chi

e||--------------------------|--------------------------|--------------------------|--------------------------|
B||--6--------let-ring-------|-----------let-ring-------|-----------let-ring-------|-----------let-ring-------|
G||--7--------let-ring-------|-----------let-ring-------|-----------let-ring-------|-----------let-ring-------|
D||--7--------let-ring-------|-----------let-ring-------|-----------let-ring-------|-----------let-ring-------|
A||--5--------let-ring-------|-----------let-ring-------|-----------let-ring-------|-----------let-ring-------|
E||--------------------------|--------------------------|--------------------------|--------------------------|
     ra       ko    chi       ra        a       n        yo     wa    jo    u       zu            kou

e||--------------------------|--------------------------|--------------------------|--------------------------|
B||--------------------------|--------------------------|--------------------------|--------------------------|
G||--------------------------|--------------------------|--------------------------|--------------------------|
D||--7--7--X--7--7--7--X--7--|--7--7--X--7--7--7--X--7--|--7--7--X--7--7--7--X--7--|--7--7--X--7--7--7--X--7--|
A||--5--5--X--5--5--5--X--5--|--5--5--X--5--5--5--X--5--|--5--5--X--5--5--5--X--5--|--5--5--X--5--5--5--X--5--|
E||--5--5--X--5--5--5--X--5--|--5--5--X--5--5--5--X--5--|--5--5--X--5--5--5--X--5--|--5--5--X--5--5--5--X--5--|
     hi          ya    ni       yo          tte            hi    to    ya    su       mi    ki    me    ta

e||--------------------------|--------------------------|--------------------------|--------------------------|
B||--------------------------|--------------------------|--------------------------|--------------------------|
G||--7--7--7--7--7--7--7--7--|--7--7--7--7--7--7--7--7--|--9--9--9--9--9--9--9--9--|--9--9--9--9--9--9--9--9--|
D||--8--8--8--8--8--8--8--8--|--8--8--8--8--8--8--8--8--|--10-10-10-10-10-10-10-10-|--10-10-10-10-10-10-10-10-|
A||--8--8--8--8--8--8--8--8--|--8--8--8--8--8--8--8--8--|--10-10-10-10-10-10-10-10-|--10-10-10-10-10-10-10-10-|
E||--6--6--6--6--6--6--6--6--|--6--6--6--6--6--6--6--6--|--8--8--8--8--8--8--8--8--|--8--8--8--8--8--8--8--8--|
     ra                         ka    e     re    na       i                          ka    e     re    na

e||--------------------------|--------------------------|--------------------------|
B||--6--6--6--6--6--6--6--6--|--6--6--6--6--6--6--6--6--|--6--6--6--6--6--6--6--6--|
G||--7--7--7--7--7--7--7--7--|--7--7--7--7--7--7--7--7--|--7--7--7--7--7--7--7--7--|
D||--7--7--7--7--7--7--7--7--|--7--7--7--7--7--7--7--7--|--7--7--7--7--7--7--7--7--|
A||--5--5--5--5--5--5--5--5--|--5--5--5--5--5--5--5--5--|--5--5--5--5--5--5--5--5--|
E||--------------------------|--------------------------|--------------------------|
     i



Chorus:


STARTS AT 01:47

e||--------------------------|
B||--10----------------------|
G||--10----------------------|
D||--10----------------------|
A||--8-----------------------|
E||--------------------------|
                   Don
e||--------------------------|--------------------------|--------------------------|--------------------------|
B||--6--6--6--6--6--6--6--6--|--------------------------|--10-10-10-10-10-10-10-10-|--------------------------|
G||--7--7--7--7--7--7--7--7--|--7--7--7--7--7--7--7--7--|--10-10-10-10-10-10-10-10-|--9--9--9--9--9--9--9--9--|
D||--7--7--7--7--7--7--7--7--|--8--8--8--8--8--8--8--8--|--10-10-10-10-10-10-10-10-|--10-10-10-10-10-10-10-10-|
A||--5--5--5--5--5--5--5--5--|--8--8--8--8--8--8--8--8--|--8--8--8--8--8--8--8--8--|--10-10-10-10-10-10-10-10-|
E||--------------------------|--6--6--6--6--6--6--6--6--|--------------------------|--8--8--8--8--8--8--8--8--|
     ten         no             mi    chi   wo             bu    ra    ri    bu       ra    bu    ra
e||--------------------------|--------------------------|--------------------------|--------------------------|
B||--6--6--6--6--6--6--6--6--|--------------------------|--10-10-10-10-10-10-10-10-|--------------------------|
G||--7--7--7--7--7--7--7--7--|--7--7--7--7--7--7--7--7--|--10-10-10-10-10-10-10-10-|--9--9--9--9--9--9--9--9--|
D||--7--7--7--7--7--7--7--7--|--8--8--8--8--8--8--8--8--|--10-10-10-10-10-10-10-10-|--10-10-10-10-10-10-10-10-|
A||--5--5--5--5--5--5--5--5--|--8--8--8--8--8--8--8--8--|--8--8--8--8--8--8--8--8--|--10-10-10-10-10-10-10-10-|
E||--------------------------|--6--6--6--6--6--6--6--6--|--------------------------|--8--8--8--8--8--8--8--8--|
     a     ru    ku    fu       ta    ri    wa             a     shi   ga    ru       no    go    to    ku
e||--------------------------|--------------------------|--------------------------|--------------------------|
B||--6--6--6--6--6--6--6--6--|--------------------------|--10-10-10-10-10-10-10-10-|--------------------------|
G||--7--7--7--7--7--7--7--7--|--7--7--7--7--7--7--7--7--|--10-10-10-10-10-10-10-10-|--9--9--9--9--9--9--9--9--|
D||--7--7--7--7--7--7--7--7--|--8--8--8--8--8--8--8--8--|--10-10-10-10-10-10-10-10-|--10-10-10-10-10-10-10-10-|
A||--5--5--5--5--5--5--5--5--|--8--8--8--8--8--8--8--8--|--8--8--8--8--8--8--8--8--|--10-10-10-10-10-10-10-10-|
E||--------------------------|--6--6--6--6--6--6--6--6--|--------------------------|--8--8--8--8--8--8--8--8--|
     ki          ken            su    ki    no             da    re    ka    no       fu    ri    wo    su

e||--------------------------|--------------------------|--------------------------|
B||--6--6--6--6--6--6--6--6--|--------------------------|--------------------------|
G||--7--7--7--7--7--7--7--7--|--7--7--7--7--7--7--7--7--|--9--9--9--9--9--9--9--9--|
D||--7--7--7--7--7--7--7--7--|--8--8--8--8--8--8--8--8--|--10-10-10-10-10-10-10-10-|
A||--5--5--5--5--5--5--5--5--|--8--8--8--8--8--8--8--8--|--10-10-10-10-10-10-10-10-|
E||--------------------------|--6--6--6--6--6--6--6--6--|--8--8--8--8--8--8--8--8--|
     ru                         shou        shin           mo    no    do    mo



Solo:


STARTS AT 02:07



e||-------------------|--5----------------------------|---------------|--------------------------------|
B||--6----------------|--------6----------------------|-10------------|-10-----------------------------|
G||--7----------------|------------------------x------|-10------------|--------10------------------x---|
D||--7----------------|------------------------x------|-10------------|------------------10---10---x---|
A||--5------------5---|--------------7----7----x------|-8-------8-----|------------------8----8----x---|
E||-------------------|--------------5----5-----------|---------------|--------------------------------|
    ONE 2 3       FOUR| ONE  2-AND 3-AND  FOUR-AND    | ONE 2 3 FOUR  | ONE  2-AND     3-AND  FOUR-AND |


e||---------------|----------------------------------|--------------------------|-----------------------------|
B||--8------------|----------------------------------|--------------------------|-----------------------------|
G||--9--------9---|-10------9---------9---9----9-----|-7---7---8-------8---7----|-9---9---10--------10--9-----|
D||--10-------10--|-10------10--------10--10---10----|-8---8---8-------8---8----|-10--10--10--------10--10----|
A||--10-------10--|-10------10--------10--10---10----|-8---8---8-------8---8----|-10--10--10--------10--10----|
E||--8--------8---|-8-------8---------8---8----8-----|-6---6---6-------6---6----|-8---8---8---------8---8-----|
     ONE 2 3  FOUR| ONE   2-AND     3-AND FOUR-AND   | ONE TWO-AND   3-AND FOUR | ONE TWO-AND three-AND FOUR--|


e||--5---5---5-----5---5---|--5---5---5-----5---5---5--|--8---8---8-----8---8---|----------------------------|
B||--6---6---6-----6---6---|--6---6---6-----6---6---6--|--10--10--10----10--10--|--11--11--10----10--10--10--|
G||--7---7---7-----7---7---|--7---7---7-----7---7---7--|--10--10--10----10--10--|--10--10--10----10--10--10--|
D||--7---7---7-----7---7---|--7---7---7-----7---7---7--|--10--10--10----10--10--|--10--10--10----10--10--10--|
A||--5---5---5-----5---5---|--5---5---5-----5---5---5--|--8---8---8-----8---8---|--8---8---8-----8---8---8---|
E||------------------------|---------------------------|------------------------|----------------------------|
     ONE TWO-AND 3-AND FOUR| ONE TWO-AND 3-AND FOUR-AND|  ONE TWO-AND 3-AND FOUR | ONE TWO-AND 3-AND FOUR-AND|


e||-----------------------------------|-----------------------------------|-----------------------------------|
B||-----------------------------------|-----------------------------------|-----------------------------------|
G||--9---9---9---------9---9----9-----|--10--10--9---------9---9----9-----|--7---7---7---------7---7----7-----|
D||--10--10--10--------10--10---10----|--10--10--10--------10--10---10----|--8---8---8---------8---8----8-----|
A||--10--10--10--------10--10---10----|--10--10--10--------10--10---10----|--8---8---8---------8---8----8-----|
E||--8---8---8---------8---8----8-----|--8---8---8---------8---8----8-----|--6---6---6---------6---6----6-----|
     ONE TWO-AND     3-AND FOUR-AND   |  ONE TWO-AND     3-AND FOUR-AND   |  ONE TWO-AND     3-AND FOUR-AND   |





Chorus:


STARTS AT 02:27

e||------------------------|
B||------------------------|
G||--9---9-----------------|
D||--10--10-----MUTE-------|
A||--10--10----------------|
E||--8---8-----------------|
     ONE TWO    3    4
                DON  
e||--------------------------|--------------------------|--------------------------|--------------------------|
B||--6--6--6--6--6--6--6--6--|--------------------------|--10-10-10-10-10-10-10-10-|--------------------------|
G||--7--7--7--7--7--7--7--7--|--7--7--7--7--7--7--7--7--|--10-10-10-10-10-10-10-10-|--9--9--9--9--9--9--9--9--|
D||--7--7--7--7--7--7--7--7--|--8--8--8--8--8--8--8--8--|--10-10-10-10-10-10-10-10-|--10-10-10-10-10-10-10-10-|
A||--5--5--5--5--5--5--5--5--|--8--8--8--8--8--8--8--8--|--8--8--8--8--8--8--8--8--|--10-10-10-10-10-10-10-10-|
E||--------------------------|--6--6--6--6--6--6--6--6--|--------------------------|--8--8--8--8--8--8--8--8--|
     ten         no             mi    chi   wo             ka    sa    wo    wa       su    re    te
e||--------------------------|--------------------------|--------------------------|--------------------------|
B||--6--6--6--6--6--6--6--6--|--------------------------|--10-10-10-10-10-10-10-10-|--------------------------|
G||--7--7--7--7--7--7--7--7--|--7--7--7--7--7--7--7--7--|--10-10-10-10-10-10-10-10-|--9--9--9--9--9--9--9--9--|
D||--7--7--7--7--7--7--7--7--|--8--8--8--8--8--8--8--8--|--10-10-10-10-10-10-10-10-|--10-10-10-10-10-10-10-10-|
A||--5--5--5--5--5--5--5--5--|--8--8--8--8--8--8--8--8--|--8--8--8--8--8--8--8--8--|--10-10-10-10-10-10-10-10-|
E||--------------------------|--6--6--6--6--6--6--6--6--|--------------------------|--8--8--8--8--8--8--8--8--|
     a     ru    ku    ka       no    jo    wa             a     me    ni    o        bi    e     te    ru
e||--------------------------|--------------------------|--------------------------|--------------------------|
B||--6--6--6--6--6--6--6--6--|--------------------------|--10-10-10-10-10-10-10-10-|--------------------------|
G||--7--7--7--7--7--7--7--7--|--7--7--7--7--7--7--7--7--|--10-10-10-10-10-10-10-10-|--9--9--9--9--9--9--9--9--|
D||--7--7--7--7--7--7--7--7--|--8--8--8--8--8--8--8--8--|--10-10-10-10-10-10-10-10-|--10-10-10-10-10-10-10-10-|
A||--5--5--5--5--5--5--5--5--|--8--8--8--8--8--8--8--8--|--8--8--8--8--8--8--8--8--|--10-10-10-10-10-10-10-10-|
E||--------------------------|--6--6--6--6--6--6--6--6--|--------------------------|--8--8--8--8--8--8--8--8--|
     no          de             bo    ku    mo             yo    wa    mu    shi      bu    ra    sa    ge

e||--------------------------|--------------------------|--------------------------|
B||--6--6--6--6--6--6--6--6--|--------------------------|--------------------------|
G||--7--7--7--7--7--7--7--7--|--7--7--7--7--7--7--7--7--|--9--9--9--9--9--9--9--9--|
D||--7--7--7--7--7--7--7--7--|--8--8--8--8--8--8--8--8--|--10-10-10-10-10-10-10-10-|
A||--5--5--5--5--5--5--5--5--|--8--8--8--8--8--8--8--8--|--10-10-10-10-10-10-10-10-|
E||--------------------------|--6--6--6--6--6--6--6--6--|--8--8--8--8--8--8--8--8--|
     te                         so          ra             wo       a           o

e||--------------------------|--------------------------|--------------------------|
B||--6--6--6--6--6--6--6--6--|--6--6--6--6--6--6--6--6--|--------------------------|
G||--7--7--7--7--7--7--7--7--|--7--7--7--7--7--7--7--7--|--7--7--7--7--7--7--7--7--|
D||--7--7--7--7--7--7--7--7--|--7--7--7--7--7--7--7--7--|--8--8--8--8--8--8--8--8--|
A||--5--5--5--5--5--5--5--5--|--5--5--5--5--5--5--5--5--|--8--8--8--8--8--8--8--8--|
E||--------------------------|--------------------------|--6--6--6--6--6--6--6--6--|
           gu


Outro:


STARTS AT 02:51

e||--------------------------|
B||--------------------------|
G||--9--9--9--9--9--9--9--9--|
D||--10-10-10-10-10-10-10-10-|
A||--10-10-10-10-10-10-10-10-|
E||--8--8--8--8--8--8--8--8--|


e||--------------------------|--------------------------|--------------------------|--------------------------|
B||--6--6--6--6--6--6--6--6--|--6--6--6--6--6--6--6--6--|--------------------------|--------------------------|
G||--7--7--7--7--7--7--7--7--|--7--7--7--7--7--7--7--7--|--7--7--7--7--7--7--7--7--|--9--9--9--9--9--9--9--9--|
D||--7--7--7--7--7--7--7--7--|--7--7--7--7--7--7--7--7--|--8--8--8--8--8--8--8--8--|--10-10-10-10-10-10-10-10-|
A||--5--5--5--5--5--5--5--5--|--5--5--5--5--5--5--5--5--|--8--8--8--8--8--8--8--8--|--10-10-10-10-10-10-10-10-|
E||--------------------------|--------------------------|--6--6--6--6--6--6--6--6--|--8--8--8--8--8--8--8--8--|


e||--------------------------|--------------------------|--------------------------|--------------------------|
B||--6--------let-ring-------|-----------let-ring-------|-----------let-ring-------|-----------let-ring-------|
G||--7--------let-ring-------|-----------let-ring-------|-----------let-ring-------|-----------let-ring-------|
D||--7--------let-ring-------|-----------let-ring-------|-----------let-ring-------|-----------let-ring-------|
A||--5--------let-ring-------|-----------let-ring-------|-----------let-ring-------|-----------let-ring-------|
E||--------------------------|--------------------------|--------------------------|--------------------------|

            
            
Suggest correction
Creating personal tab
Creating personal tab
You can edit any tab online and save it as your Personal.

You can edit, replace or remove any tab part or add personal notes – all changes will be seen only by you.

Personal tabs can be accessed anytime from any device, even offline.
Learn more »
Give kudos to tab author, rate the tab!
1 2 3 4 5
comments
print report bad tab
guest
You may want to rate the tab now too:
select rating
Wanna post a correction for this tab? Suggest correction