Oops, an error
Loading. Please wait.

We Are Rockstars bass

version 1
version 1

Whole song

Interactive

1,999 views 3 this week
no commentswrite comment
1 2 3 4 5
1 last vote to show rating
add to favorites
×
Save as Personal and add changes to this tab that will be seen only by you. Learn more ›
×
You can save this tab as Personal to edit and correct it or add notes. All changes will be seen only by you. Learn more »
launch autoscroll
font size
0
reset
guitar tuner
edit
Autoscroll
slow
fast
+/-
esc
set tempo
stop
-------------------------------------------------------------------------------
			     WE ARE ROCKSTARS - Does It Offend You, Yeah?
-------------------------------------------------------------------------------

Tabbed By : Hart
e-mail: have.hart@hotmail.com

Tuning: Drop D

Intro (Optional, start at 0:15)
G|----------------|
D|----------------|
A|----------------|
D|-1~----1~----1~-|

Come in 0:20
Intro Part 1 x4
G|-------------------------------------------|
D|-------------------------------------------|
A|-------------------------------------------|
D|-1~--3422---1~--3422---1~--3422---1~--3422-|

every 2nd time
G|----------------------------------|
D|----------------------------------|
A|----------------------------------|
D|-1~--3422---1~--3422---1~--3422x--|

Intro Part 2 x2 (Optional)
G|------------------------|
D|------------------------|
A|------------------------|
D|-1~--------1~--------1~-|

Intro Part 1 x2
G|-------------------------------------------|
D|-------------------------------------------|
A|-------------------------------------------|
D|-1~--3422---1~--3422---1~--3422---1~--3422-|

every 2nd time
G|----------------------------------|
D|----------------------------------|
A|----------------------------------|
D|-1~--3422---1~--3422---1~--3422x--|

Verse
G|------------------------------------------------------------|
D|------------------------------------------------------------|
A|------------------------------------------------------------|
D|88888888888888\44444444444444/13131313131313131313131313\8~-|

Use for the rest of the song.

That's it.

| /  slide up
| \  slide down
| h  hammer-on
| p  pull-off
| ~  vibrato
| +  harmonic
| x  Mute note
===============================================================================

            
            
Suggest correction
Creating personal tab
Creating personal tab
You can edit any tab online and save it as your Personal.

You can edit, replace or remove any tab part or add personal notes – all changes will be seen only by you.

Personal tabs can be accessed anytime from any device, even offline.
Learn more »
Give kudos to tab author, rate the tab!
1 2 3 4 5
comments
print report bad tab
guest
You may want to rate the tab now too:
select rating
Wanna post a correction for this tab? Suggest correction