Oops, an error
Loading. Please wait.

Just Got Lucky bass

version 1
version 1

Whole song

Interactive

by Dokken
1,860 views 1 this week
no commentswrite comment
1 2 3 4 5
3 more votes to show rating
add to favorites
×
Save as Personal and add changes to this tab that will be seen only by you. Learn more ›
×
You can save this tab as Personal to edit and correct it or add notes. All changes will be seen only by you. Learn more »
launch autoscroll
font size
0
reset
guitar tuner
backing track
0:00
0:00
edit
Autoscroll
slow
fast
+/-
esc
set tempo
stop
Artist: Dokken
Album: Tooth and Nail
Song: Just Got Lucky

Intro

F#-|--------|-------|-------|---------|
C#-|--------|-------|-------|---------|
G#-|------5-|-----1-|-----0-|---------|
D#-|-0000---|-000---|-000---|-3--1--0-|


Verse 1

F#-|-----------------|-----------------|-----------------|-----------------|
C#-|-----------------|-----------------|-----------------|-----------------|
G#-|-5-5-5-5-5-5-5-5-|-5-5-5-5-5-5-5-5-|-5-5-5-5-5-5-5-5-|-3-3-3-3---------|
D#-|-----------------|-----------------|-----------------|---------3-3-3-3-|

I should’ a known better, should’ a seen right thru 
Over and over falling in love with you 

F#-|-----------------|-----------------|-----------------|-----------------|
C#-|-----------------|-----------------|-----------------|-----------------|
G#-|-5-5-5-5-5-5-5-5-|-5-5-5-5-5-5-5-5-|-5-5-5-5-5-5-5-5-|-5-5-5-5-5-5-5-5-|
D#-|-----------------|-----------------|-----------------|-----------------|

Wanted you for myself, my first mistake 
Finding out the hard way, was all that I could take 

F#-|-----------------|-----------------|
C#-|-----------------|-----------------|
G#-|-----------------|-3-3-3-3-4-4-4-4-|
D#-|-3-3-3-3-3-3-3-3-|-----------------|

You were just using someone and I was the one 

Chorus

F#-|-----------------|-----------------|-----------------|
C#-|-----------------|-----------------|-----------------|
G#-|-5-5-5-5-3-~-~-~-|-5-5-5-5-1-~-~-~-|-5-5-5-5-3-~-----|
D#-|-----------------|-----------------|-----------3-~-5-|

She said "you just got lucky”, I believed your deadly lies 
"you just got lucky", you're a devil in disguise 

F#-|-----------------|-----------------|-----------------|
C#-|-----------------|-----------------|-----------------|
G#-|-5-5-5-5-3-~-~-~-|-5-5-5-5-1-~-~-~-|-5-5-5-5-3-~-----|
D#-|-----------------|-----------------|-----------3-~-5-|

She said "you just got lucky”, I believed your deadly lies 
"you just got lucky", you're a devil in disguise

Verse 2

F#-|-----------------|-----------------|-----------------|-----------------|
C#-|-----------------|-----------------|-----------------|-----------------|
G#-|-5-5-5-5-5-5-5-5-|-5-5-5-5-5-5-5-5-|-5-5-5-5-5-5-5-5-|-3-3-3-3---------|
D#-|-----------------|-----------------|-----------------|---------3-3-3-3-|

Don't wanna hear no lies, no apologies; imagination gets the best of me

F#-|-----------------|-----------------|-----------------|-----------------|
C#-|-----------------|-----------------|-----------------|-----------------|
G#-|-5-5-5-5-5-5-5-5-|-5-5-5-5-5-5-5-5-|-5-5-5-5-5-5-5-5-|-5-5-5-5-5-5-5-5-|
D#-|-----------------|-----------------|-----------------|-----------------|

I'm looking everywhere; still I see your face
I'll never forget you; you put me in my place

F#-|-----------------|-----------------|
C#-|-----------------|-----------------|
G#-|-----------------|-3-3-3-3-4-4-4-4-|
D#-|-3-3-3-3-3-3-3-3-|-----------------|

You were just using someone and I was the one 

Chorus

F#-|-----------------|-----------------|-----------------|
C#-|-----------------|-----------------|-----------------|
G#-|-5-5-5-5-3-~-~-~-|-5-5-5-5-1-~-~-~-|-5-5-5-5-3-~-----|
D#-|-----------------|-----------------|-----------3-~-5-|

She said "you just got lucky”, I believed your deadly lies 
"you just got lucky", I've been hypnotized

F#-|-----------------|-----------------|-----------------|
C#-|-----------------|-----------------|-----------------|
G#-|-5-5-5-5-3-~-~-~-|-5-5-5-5-1-~-~-~-|-5-5-5-5-3-~-----|
D#-|-----------------|-----------------|-----------3-~-5-|

She said "you just got lucky”, I believed your deadly lies 
"you just got lucky", you’re a devil in disguise

Solo

F#-|-----------------|-----------------|-----------------|-----------|
C#-|-----------------|-----------------|-----------------|-----------|
G#-|-5-5-5-5-5-5-5-5-|-1-1-1-1-1-1-1-1-|-0-0-0-0-0-0-0-0-|-----------|
D#-|-----------------|-----------------|-----------------|--3--1--0--|

Verse 3

F#-|-----------------|-----------------|-----------------|-----------------|
C#-|-----------------|-----------------|-----------------|-----------------|
G#-|-5-5-5-5-5-5-5-5-|-5-5-5-5-5-5-5-5-|-5-5-5-5-5-5-5-5-|-3-3-3-3---------|
D#-|-----------------|-----------------|-----------------|---------3-3-3-3-|

Now that it’s over and I've seen right through; 
Not looking back again I'll start anew

F#-|-----------------|-----------------|-----------------|-----------------|
C#-|-----------------|-----------------|-----------------|-----------------|
G#-|-5-5-5-5-5-5-5-5-|-5-5-5-5-5-5-5-5-|-5-5-5-5-5-5-5-5-|-5-5-5-5-5-5-5-5-|
D#-|-----------------|-----------------|-----------------|-----------------|

Was making love to you such a wasted time
Maybe I love you; still, I'll get you off my mind

F#-|-----------------|-----------------|
C#-|-----------------|-----------------|
G#-|-----------------|-3-3-3-3-4-4-4-4-|
D#-|-3-3-3-3-3-3-3-3-|-----------------|

You were just using someone and I was the one 

Chorus

F#-|-----------------|-----------------|-----------------|
C#-|-----------------|-----------------|-----------------|
G#-|-5-5-5-5-3-~-~-~-|-5-5-5-5-1-~-~-~-|-5-5-5-5-3-~-----|
D#-|-----------------|-----------------|-----------3-~-5-|

She said "you just got lucky”, I believed your deadly lies 
"you just got lucky", I've been hypnotized

F#-|-----------------|-----------------|-----------------|
C#-|-----------------|-----------------|-----------------|
G#-|-5-5-5-5-3-~-~-~-|-5-5-5-5-1-~-~-~-|-5-5-5-5-3-~-----|
D#-|-----------------|-----------------|-----------3-~-5-|

She said "you just got lucky”, I believed your deadly lies 
"you just got lucky", you’re a devil in disguise

Solo

F#-|-----------------|-----------------|-----------------|-----------|
C#-|-----------------|-----------------|-----------------|-----------|
G#-|-5-5-5-5-5-5-5-5-|-1-1-1-1-1-1-1-1-|-0-0-0-0-0-0-0-0-|-----------|
D#-|-----------------|-----------------|-----------------|--3--1--0--|

F#-|-----------------|-----------------|-----------------|------------|
C#-|-----------------|-----------------|-----------------|------------|
G#-|-5-5-5-5-5-5-5-5-|-1-1-1-1-1-1-1-1-|-0-0-0-0-0-0-0-0-|----------5-|
D#-|-----------------|-----------------|-----------------|--3--1--0---|

You just got lucky, you just got lucky, yeah…oh yeah…Lucky!!

tabbed by psweeney4

            
            
Suggest correction
Creating personal tab
Creating personal tab
You can edit any tab online and save it as your Personal.

You can edit, replace or remove any tab part or add personal notes – all changes will be seen only by you.

Personal tabs can be accessed anytime from any device, even offline.
Learn more »
Give kudos to tab author, rate the tab!
1 2 3 4 5
comments
print report bad tab
guest
You may want to rate the tab now too:
select rating
Wanna post a correction for this tab? Suggest correction