Oops, an error
Loading. Please wait.

Beautiful Morning bass

1,910 views 3 this week
2 commentsread comments
1 2 3 4 5
2 more votes to show rating
add to favorites
×
Save as Personal and add changes to this tab that will be seen only by you. Learn more ›
×
You can save this tab as Personal to edit and correct it or add notes. All changes will be seen only by you. Learn more »
launch autoscroll
font size
0
reset
guitar tuner
edit
Autoscroll
slow
fast
+/-
esc
set tempo
stop
Bass Tab
Beautiful Morning by Don Broco
Tuning: Drop D

Verse One

G|---------11-------------11-------------9-------------11----------10--9---------------|
D|-----12------12-----12------12-----10-----10-----12------12------12--10--10--12--10--|
A|--------------------------------0----------------------------10----------------------|
D|--0--------------0----------------------------8--------------------------------------| [X6]

Pre Chorus One

G|----------------------------------|
D|----------------------------------|
A|-----8--8-----8-----8-------------|
E|--0--------0-----0-----0--10--12--| [X2]

Chorus One

G|--------------------------------------------------------------------------|
D|-----3--------1--3-----3--5--3-----3-----3--3--5--3--------2--2--3--2-----|
A|--1-----1--1--------1-----------5-----3--------------5--0--------------3--|
E|--------------------------------------------------------------------------|

G|--------------------------------------------------------|
D|-----3--------1--3-----3--5--3-----3-----3--3--5--3-----|
A|--1-----1--1--------1-----------5-----3--------------5--|
E|--------------------------------------------------------|

Verse Two

G|---------11-------------11-------------9-------------11----------10--9---------------|
D|-----12------12-----12------12-----10-----10-----12------12------12--10--10--12--10--|
A|--------------------------------0----------------------------10----------------------|
D|--0--------------0----------------------------8--------------------------------------| [X2]

Pre Chorus Two

G|----------------------------------|
D|----------------------------------|
A|-----8--8-----8-----8-------------|
E|--0--------0-----0-----0--10--12--| [X3]

G|----------------------------------|
D|----------------------------------|
A|-----8--8-----8-----8-------------|
E|--0--------0-----0-----0--3--5----|

Chorus Two

G|--------------------------------------------------------------------------|
D|-----3--------1--3-----3--5--3-----3-----3--3--5--3--------2--2--3--2-----|
A|--1-----1--1--------1-----------5-----3--------------5--0--------------3--|
E|--------------------------------------------------------------------------| [X4]


Bridge

G|--10-[X16]--12--[X16]-----------------------|
D|--8---------10---------12--[X24]--14--[X8]--|
A|-----------------------10---------12--------|
E|--------------------------------------------| [X3]


G|--10-[X16]--12--[X16]-----------------------|
D|--8---------10---------12--[X24]--14~-------|
A|-----------------------10---------12~-------|
E|--------------------------------------------|

Chorus Three

G|--------------------------------------------------------------------------|
D|-----3--------1--3-----3--5--3-----3-----3--3--5--3--------2--2--3--2-----|
A|--1-----1--1--------1-----------5-----3--------------5--0--------------3--|
E|--------------------------------------------------------------------------| [X4]

Outro (Part 1)

G|-----------------------------------------------------------------|
D|-----3--------3-----3--3-----3-----3--3-----3-----2--2--3--2-----|
A|--1-----1--1-----1--------1-----3--------3-----0--------------3--|
E|-----------------------------------------------------------------|

G|-----------------------------------------------------------------|
D|-----3--3-----3-----3--3-----3-----3--3-----3-----2--2--3--2-----|
A|--1--------1-----1--------1-----3--------3-----0--------------3--|
E|-----------------------------------------------------------------| [X2]

G|-----------------------------------------------------------------|
D|-----3--3-----3-----3--3-----3-----3--3-----3-----2--2--2--2-----|
A|--1--------1-----1--------1-----3--------3-----0-----------------|
E|-----------------------------------------------------------------|

Outro (Part 2)

G|--------------------------------|
D|--------------------------------|
A|-----8--8-----8-----8-----------|
E|--0--------0-----0-----0--8--3--|

G|-----------------------------|
D|-----------------------------|
A|-----8--8-----8-----8--------|
E|--0--------0-----0-----0--8--|

G|--------------------------------|
D|--------------------------------|
A|-----8--8-----8-----8-----------|
E|--0--------0-----0-----0--8--3--|

G|-----------------------------|
D|-----------------------------|
A|-----8--8-----8-----8--------|
E|--0--------0-----0-----0--8--|

            
            
Suggest correction
Creating personal tab
Creating personal tab
You can edit any tab online and save it as your Personal.

You can edit, replace or remove any tab part or add personal notes – all changes will be seen only by you.

Personal tabs can be accessed anytime from any device, even offline.
Learn more »
Give kudos to tab author, rate the tab!
1 2 3 4 5
comments
print report bad tab
2 comments total.
0 reply
Bridgeybass 30 Dec 05, 2014 02:28 AM

I don't know how you would be able to tune from Drop D to Standard E so easily? Unless you've made a mistake when you've written it

0 reply
andrewjmclean 10 Sep 06, 2015 12:17 PM

Nice tab aymundo

guest
You may want to rate the tab now too:
select rating
Wanna post a correction for this tab? Suggest correction